Badly Drawn Boy - Donna And Blitzen Chords & Tabs

 

Donna And Blitzen Chords & Tabs

Badly Drawn Boy Chords & Tabs

Version: 1 Type: Tab 0 ratings
1 star 2 stars 3 stars 4 stars 5 stars
comments

Donna And Blitzen Tab

Donna & Blitzen
by Badly Drawn Boy (Damon Gough)
Tabbed by Joseph Spitsen - 4 & 5 October 2004


Intro

e-6-5-3-6-----10-8--10-10-8-6---6-5-3-3------------------------|
B-----------6---------------------------6--6-4-3---------------|
G--------------------------------------------------------------|
D--------------------------------------------------------------|
A--------------------------------------------------------------|
E--------------------------------------------------------------|

e---10-8--10-10-8-6--6-5-3-3------6666666---6666666------------|
B-6--------------------------6----6666666---6666666------------|
G---------------------------------7777777---7777777------------|
D--------------------------------------------------------------|
A--------------------------------------------------------------|
E-----------------------------------------6---------6----------|

e--------------------------------------------------------------|
B--------6------------------6----------------------------------|
G---7----7----8-7-5----7----7----------------------------------|
D---8----7-------------8----7-----8-7-5------------------------|
A---8--5-5--6----------8--5-5---6------------------------------|
E-6-6----------------6-6---------------------------------------|


Not The Intro

e--------------------------------------------------------------|
B--------6------------------6----------------------------------|
G---7----7----8-7-5----7----7----------------------------------|
D---8----7-------------8----7-----8-7-5------------------------|
A---8--5-5--6----------8--5-5---6------------------------------|
E-6-6----------------6-6---------------------------------------|
    Pay for the light
    But you may still slide
    Baby it's not your sleigh

e--------------------------------------------------------------|
B---------------6-6-6-6-6-6------------------------------------|
G---7-7-7-7-7-7-7-7-7-7-7-7-8-8-8-8-8-8-10-10-10-10-10-10------|
D---8-8-8-8-8-8-7-7-7-7-7-7-8-8-8-8-8-8-10-10-10-10-10-10------|
A---8-8-8-8-8-8-5-5-5-5-5-5-6-6-6-6-6-6-8--8--8--8--8--8-------|
E---6-6-6-6-6-6------------------------------------------------|
    Ride                      But this year is
    Ours                    Maybe tomorrow
          We're gonna see       Things we'd never
    Believe                 I'll make you want me, you'll
    See                   With only two reindeer.
          Oh, what a sight      As they take their first
    Flight                   Oh, darling it's all in
    Time                        And I will
          I will                  I will
          I will                  I will sleep sleep to-
[ Tab from: http://www.guitartabs.cc/tabs/b/badly_drawn_boy/donna_and_blitzen_tab.html ]
e--------------------------------------------------------------|
B---------------------6-X-X-------X-X-X-X-X-X-X-X-X------------|
G---------7-X-X-------7-X-X-------8-X-X-7-X-X-5-X-X------------|
D---X-X-X-8-X-X-X-X-X-7-X-X-X-X-X-X-X-X-X-X-X-X-X-X------------|
A---X-X-X-8-X-X-5-5-5-5-X-X-6-6-6-6----------------------------|
E---6-6-6-6-X-X-X-X-X-------X-X-X------------------------------|
    Night

e--------------------------------------------------------------|
B---------------------6-X-X------------------------------------|
G---------7-X-X-------7-X-X-------X-X-X-X-X-X-X-X-X------------|
D---X-X-X-8-X-X-X-X-X-7-X-X-X-X-X-8-X-X-7-X-X-5-X-X------------|
A---X-X-X-8-X-X-5-5-5-5-X-X-6-6-6-6-X-X-X-X-X-X-X-X------------|
E---6-6-6-6-X-X-X-X-X-------X-X-X------------------------------|
                    I will sleep to-

e--------------------------------------------------------------|
B---------------6-6-6-6-6-6------------------------------------|
G---7-7-7-7-7-7-7-7-7-7-7-7-8-8-8-8-8-8-10-10-10-10-10-10------|
D---8-8-8-8-8-8-7-7-7-7-7-7-8-8-8-8-8-8-10-10-10-10-10-10------|
A---8-8-8-8-8-8-5-5-5-5-5-5-6-6-6-6-6-6-8--8--8--8--8--8-------|
E---6-6-6-6-6-6------------------------------------------------|
    Night

e--------------------------------------------------------------|
B---------------6-6-6-6-6-6-------------2-2-2-2-2-2------------|
G---7-7-7-7-7-7-7-7-7-7-7-7-8-8-8-8-8-8-3-3-3-3-3-3-7----------|
D---8-8-8-8-8-8-7-7-7-7-7-7-8-8-8-8-8-8-3-3-3-3-3-3-8----------|
A---8-8-8-8-8-8-5-5-5-5-5-5-6-6-6-6-6-6-1-1-1-1-1-1-8----------|
E---6-6-6-6-6-6-------------------------------------6----------|

In the bulk of the song, as well as the outro, the chords are
each quickly strummed six times, and all strummed downward.
Although not indicated, the last two strums out of every six
are mutes.

Looking for the tab, all I could find was "Bb, Dm, Eb, F."  I
was hoping to find something a bit more involved than that,
so I decided to tab it myself.  ANYWAY, this is my first tab,
and I hope you all like it.  Thank-you, by the way, to
whomever did the first tab, as you made my life a lot easier
when I was getting started

Like I said, this is my first time tabbing, so feel free to
send me your questions, comments, or suggestions for change.
I'd love some audio feedback as well - so if you'd like, record
yourself and send it my way.  I'd like to hear somebody better
than me play this.

Enjoy.

-Joe Spitsen
 songahm@hotmail.com (email and MSN Messenger)
 ATAninja (AIM)


Fiona: I mean, he's a special - very, very special boy and he's
       got a special soul, and I've wounded it.
Will:  Oh, please, just shut up. You're wounding MY soul.


Pay for the light
But you may still slide
Baby, it's not your sleigh ride
But this year is ours
Maybe tomorrow
We're gonna see
Things we'd never believe
I'll make you want me, you'll see
The initial warning is free
With only two reindeer
Oh, what a sight
aas they take their first flight
Oh, darling it's all in time
And I will, I will, I will
Wait their return
Or make to the sky
Oh, what a sight beautiful
And I will
I will, I will, I will
I will sleep tonight
I will sleep tonight
Comments