Badly Drawn Boy - Disillusion Chords & Tabs

 

Disillusion Chords & Tabs

Badly Drawn Boy Chords & Tabs

Version: 2 Type: Tab 0 ratings
1 star 2 stars 3 stars 4 stars 5 stars
comments

Disillusion Tab

Band : Badly Drawn Boy
Song : Disillusion
Added by Mikhailo (tabteam@ultimate-guitar.com)
__________________________________________________________

This is pretty accurate
But not sure about the words
James Baker

Over the words play 5th fret on b & e quickly for the other sound


Intro

e--------------------------------------------------------------
b--------------------------------------------------------------
g------5---5--7---------------------5---5-7---------5-7/9-10p9-
D--5h7---7------5h7-5-7---5---5-5h7---7-----5h7-5-7------------
A-----------------------7--------------------------------------
E--------------------------------------------------------------

e-------------------------------------------
b-------------------------------------------
g-7-5-7---5-7/9-7-------------5---5-7-------
D-------7----------7-5-7--5h7---7-----5h7-5-
A-------------------------------------------
E-------------------------------------------

Lyrics


Seems you created your own illusion
Fuelled by an image of me 
I couldn't expect your side, wouldn't be right
In picture that I just don't see


e------------------------------------------------------------------
b------------------------------------------------------------------
g------5--5-7-7------5--7/9-7-5------5--5-7-7--------5--7/9-7-5----
D--5h7--7--------5h7--7----------5h7--7----------5h7--7---------5-7
A------------------------------------------------------------------
E------------------------------------------------------------------


Why d'ya have to make it, so complicated
Can't it just be beautiful
Don't wanna start from your Fri
I didn't mean to fall in love


e--10-10-10-10-10-10
b---7//8--8--8--8--8
g---6//7--7--7--7--7     X 2 (I think)
D-------------------
A-------------------
E-------------------


Always in persuit of the perfect people
All that I see are yours
There's just an innosence in you, I wanna bring out
I know it could be beautiful


e------------------------------------------------------------------
b------------------------------------------------------------------
g------5--5-7-7------5--7/9-7-5------5--5-7-7--------5--7/9-7-5----
D--5h7--7--------5h7--7----------5h7--7----------5h7--7---------5-7
A------------------------------------------------------------------
E------------------------------------------------------------------

[ Tab from: http://www.guitartabs.cc/tabs/b/badly_drawn_boy/disillusion_tab_ver_2.html ]
I don't wanna part of a situation
I don't wanna be in that boat
Don't wanna start from your Fri
I didn't mean to fall in love


e------------------------------------------------------------------
b------------------------------------------------------------------
g--------5---5--7---------------------5---5-7---------5-7/9-10p9-7-
D--5-5h7---7------5h7-5-7---5---5-5h7---7-----5h7-5-7--------------
A-------------------------7----------------------------------------
E------------------------------------------------------------------

e----------------------------------------------
b----------------------------------------------
g-5-7---5-7/9-7-------------5---5-7----------5-
D----7----------7-5-7--5h7---7-----5h7-5-7-----
A----------------------------------------------
E----------------------------------------------


Seems you created your own illusion
Fueled by an image of me 
I couldn't expect your side, wouldn't be right
In picture that I just don't see


e------------------------------------------------------------------
b------------------------------------------------------------------
g------5--5-7-7------5--7/9-7-5------5--5-7-7--------5--7/9-7-5----      
D--5h7--7--------5h7--7----------5h7--7----------5h7--7---------5-7   X 2
A------------------------------------------------------------------
E------------------------------------------------------------------


Outro

                 |
e----------------|------------------------------------
b----------------|------------------------------------
g--7/9-7-5-----5-|-7/9-7-5-----5--7/9-7-5-----5-------   Reapeat from line
D----------5h7---|---------5h7------------5h7---7-5-7-
A----------------|------------------------------------
E----------------|------------------------------------
                 |


e------------------------------------------------------------------
b------------------------------------------------------------------
g------5--5-7-7------5--7/9-7-5------5--5-7-7--------5--7/9-7-5----      
D--5h7--7--------5h7--7----------5h7--7----------5h7--7---------5-7   X 2
A------------------------------------------------------------------
E------------------------------------------------------------------


                |
e----------------|------------------------------------
b----------------|------------------------------------
g--7/9-7-5-----5-|-7/9-7-5-----5--7/9-7-5-----5-------   Reapeat from line
D----------5h7---|---------5h7------------5h7---7-5-7-
A----------------|------------------------------------
E----------------|------------------------------------
                 |
Comments