Badly Drawn Boy - Disillusion Chords & Tabs

 

Disillusion Chords & Tabs

Badly Drawn Boy Chords & Tabs

Version: 1 Type: Tab 0 ratings
1 star 2 stars 3 stars 4 stars 5 stars
comments

Disillusion Tab

Tabbed by CJ
Disillusion - Badly Drawn Boy
Over the words play 5th fret on b & e quickly for the other sound

Intro

e--------------------------------------------------------------------------------------------------------
b--------------------------------------------------------------------------------------------------------
g------5---5--7---------------------5---5-7---------5-7/9-10p9-7-5-7---5-7/9-7-------------5---5-7-------
D--5h7---7------5h7-5-7---5---5-5h7---7-----5h7-5-7------------------7----------7-5-7--5h7---7-----5h7-5-
A-----------------------7--------------------------------------------------------------------------------
E--------------------------------------------------------------------------------------------------------


e------------------------------------------------------------------
b------------------------------------------------------------------
g------5--5-7-7------5--7/9-7-5------5--5-7-7--------5--7/9-7-5----
D--5h7--7--------5h7--7----------5h7--7----------5h7--7---------5-7
A------------------------------------------------------------------
E------------------------------------------------------------------


e--10-10-10-10-10-10
b---7//8--8--8--8--8
g---6//7--7--7--7--7     X 2 (I think)
D-------------------
A-------------------
E-------------------


e------------------------------------------------------------------
b------------------------------------------------------------------
g------5--5-7-7------5--7/9-7-5------5--5-7-7--------5--7/9-7-5----
D--5h7--7--------5h7--7----------5h7--7----------5h7--7---------5-7
A------------------------------------------------------------------
E------------------------------------------------------------------
[ Tab from: http://www.guitartabs.cc/tabs/b/badly_drawn_boy/disillusion_tab.html ]
e--------------------------------------------------------------------------------------------------------------
b--------------------------------------------------------------------------------------------------------------
g--------5---5--7---------------------5---5-7---------5-7/9-10p9-7-5-7---5-7/9-7-------------5---5-7----------5
D--5-5h7---7------5h7-5-7---5---5-5h7---7-----5h7-5-7------------------7----------7-5-7--5h7---7-----5h7-5-7---
A-------------------------7------------------------------------------------------------------------------------
E--------------------------------------------------------------------------------------------------------------




e------------------------------------------------------------------
b------------------------------------------------------------------
g------5--5-7-7------5--7/9-7-5------5--5-7-7--------5--7/9-7-5----      
D--5h7--7--------5h7--7----------5h7--7----------5h7--7---------5-7   X 2
A------------------------------------------------------------------
E------------------------------------------------------------------


Outro

                 |
e----------------|------------------------------------
b----------------|------------------------------------
g--7/9-7-5-----5-|-7/9-7-5-----5--7/9-7-5-----5-------   Repeat from line
D----------5h7---|---------5h7------------5h7---7-5-7-
A----------------|------------------------------------
E----------------|------------------------------------
                 |


e------------------------------------------------------------------
b------------------------------------------------------------------
g------5--5-7-7------5--7/9-7-5------5--5-7-7--------5--7/9-7-5----      
D--5h7--7--------5h7--7----------5h7--7----------5h7--7---------5-7   X 2
A------------------------------------------------------------------
E------------------------------------------------------------------


                |
e----------------|------------------------------------
b----------------|------------------------------------
g--7/9-7-5-----5-|-7/9-7-5-----5--7/9-7-5-----5-------   Repeat from line
D----------5h7---|---------5h7------------5h7---7-5-7-
A----------------|------------------------------------
E----------------|------------------------------------
                 |
remember people SFAOK!
Comments