Baden - Name Of Song Here Chords & Tabs

 

Name Of Song Here Chords & Tabs

Baden Chords & Tabs

Version: 1 Type: Tab 0 ratings
1 star 2 stars 3 stars 4 stars 5 stars
comments

Name Of Song Here Tab


~~  let ring
/ up strum
\ down strum

{------------------------ Play 4 X --------------------------}


E------------0-------7p0-----0----0----0-------0------0-----
B------------0-------0--------0----7----7h9----7------0-----
G----8h9-------9-------------9----8----8-------8------8-----
D----9----------9-------------9----9----9-------9------9-----
A---------------------------------------------------------------
E---------------------------------------------------------------
[ Tab from: http://www.guitartabs.cc/tabs/b/baden/name_of_song_here_tab.html ]
{----------------------------Play 6 X -----------------------}
       
          \          /        /      \         /    /    \        /      \        
E-------0------0-------0-----7p0---0---0---0-------0----0--
B-------0------0-------0-----0------7---7---7h9----7----0--
G------8h9----9-------9-----9------8---8---8-------8----8--
D------8-------9-------9-----9------9---9---9-------9----9--
A------7~------------------------------------------------------
E------0~------------------------------------------------------

{------------------------Play 2 X---------------------------}

E------0------0----0-----7p0---0----0---0-------0-----0--
B------0------0----0-----0------7----7---7h9----7-----0--
G-----8h9----9----9-----9------8----8---8-------8-----8-- 
D-----9-------9----9-----9------9----9---9-------9-----9--
A-----0-------------------------------------------------------
E--------------------------------------------------------------



E----0-------0----0----7p0----0----0----0------0----0----
B----0-------0----0----0-------7----7----7h9---7----0----
G----8h9----9----9----9-------8----8-----------8----8----
D----9-------9----9----9-------9----9-----------9----9----
A----7-------------------------------------------------------
E----7-------------------------------------------------------
Comments