Bad Religion - You Chords & Tabs

 

You Chords & Tabs

Bad Religion Chords & Tabs

Version: 4 Type: Tab 0 ratings
1 star 2 stars 3 stars 4 stars 5 stars
comments

You Tab

Tabber: Muthauzem
Song: You
Band: Bad Relligion
In the tab theres no exactly Struming so you should listen the music.
I think its all right.. but if you find an mistake plis mail me : muthauzem@hotmail.com

--------------X--------------X---------------X---------------X--------------------X-------



(Intro)
e|---------------------------------------------------------|
B|---------------------------------------------------------|
G|---------------------------------------------------------|
D|--8/7777--8/7777--8/7777--8/7777--8/7777--8/7777--8/7777-|
A|--8/7777--8/7777--8/7777--8/7777--8/7777--8/7777--8/7777-|
E|--6/5555--6/5555--6/5555--6/5555--6/5555--6/5555--6/5555-|


(Verse 1)
e|----------------------------------|
B|----------------------------------|
G|--------10101010------------------|
D|--7777--10101010--10101010--5555--|
A|--7777---8-8-8-8--10101010--5555--|
E|--5555-------------8-8-8-8--3333--|

(Verse 2)
e|------------------------------------|
B|------------------------------------|
G|---------10101010------------7799---|
D|--7777---10101010--10101010--7799---|
A|--7777----8-8-8-8--10101010--5577---|
E|--5555--------------8-8-8-8---------|
[ Tab from: http://www.guitartabs.cc/tabs/b/bad_religion/you_tab_ver_4.html ]
(Pre-Chorus)
e|---------------------------|
B|---------------------------|
G|--10101010---9999---10101010----9/10/12/10--|
D|--10101010---9999---10101010----9/10/12/10--|
A|---8-8-8-8---7777----8-8-8-8----7/-8/10/-8--|
E|---------------------------|

(Chorus)
e|-----------------|--------------------|
B|-----------------|--------------------|
G|-----------------|----------7---7/9---|
D|--7---3---5---7--|--7---3---7---7/9---|
A|--7---3---5---7--|--7---3---5---5/7---|
E|--5---1---3---5--|--5---1-------------|

(Chorus Cont.)
e|-------------|------------|
B|-------------|------------|
G|-------------|------------|
D|--7---3---5--|--7--3--2---|
A|--7---3---5--|--7--3--2---|
E|--5---1---3--|--5--1--0---|

(End)
e|-----------------|--------------------|
B|-----------------|--------------------|
G|--------------5--|--------------5/4---|
D|--7---3---5---5--|--7---3---5---5/4---|
A|--7---3---5---3--|--7---3---5---3/2---|
E|--5---1---3------|--5---1---3---------|

(End Cont.)
e|-----------------|-------------|-----------|
B|-----------------|-------------|-----------|
G|--------------5--|-------------|-----------|
D|--7---3---5---5--|--7---3---2~-|--2-3-5-3--|
A|--7---3---5---3--|--7---3---2~-|--2-3-5-3--|
E|--5---1---3------|--5---1---0~-|--0-1-3-1--|

(Intro) 1x
(Verse 1) 1x
(Verse 2) 1x
(Verse 1) 1x
(Verse 2) 1x
(Pre-Chorus) 1x
(Chorus) 1x
(Chorus Cont.) 1x
(Verse 1) 1x
(Verse 2) 1x
(Verse 1) 1x
(Verse 2) 1x
(Pre-Chorus) 1x
(Chorus) 1x
(Chorus Cont.) 1x
(End) 1x
(End Cont.) 1x
Comments