Bad Religion - Yesterday Chords & Tabs

 

Yesterday Chords & Tabs

Bad Religion Chords & Tabs

Version: 1 Type: Tab 0 ratings
1 star 2 stars 3 stars 4 stars 5 stars
comments

Yesterday Tab

bad religon  - yesterday 

verso

-----------------------
-----------------------
-----------------------
--------77-6-----------
--9-7-9-55-4-7---------
--7-5-7------5---------

coro
[ Tab from: http://www.guitartabs.cc/tabs/b/bad_religion/yesterday_tab.html ]
-----------------------------------
-----------------------------------
-----------------------------------
-----764-------76-------------------
-555-542-7-555-54-55555-3322222-7-9-
-333-----5-333----33333-3322222-5-7-


orden:

parte 1 (x 6)
parte 2 ( x 1 )
parte 1 (x 6)
parte 2 ( x 1 )
parte 1 (x 6)
parte 2 ( x 1 )
parte 1 (x 8)
parte 2 ( x 1 )
parte 1 (x 4)


E-mail:klaus_seebach@hotmail.com
Comments