Bad Religion - White Trash 2nd Generation Chords & Tabs

 

White Trash 2nd Generation Chords & Tabs

Bad Religion Chords & Tabs

Version: 1 Type: Tab 1 rating
1 star 2 stars 3 stars 4 stars 5 stars
comments

White Trash 2nd Generation Tab

Bad Religion
White Trash (2nd generation)
by Wolfstrike
wolfstrike2@usinmail.com


(u= up , d= down, strum previous chord)


     intro  2x

E: --------------------------|
B: --------------------------|
G: ----------9-7--5---5-7----|
D: --9-9-9-9-9-7--5---5-7----|
A: --9-9-9-9-7-5--3---3-5----|
E: --7-7-7-7------------5----|



    main riff

E: -----------------------------------------------------|
B: -----------------------------------------------------|
G: ----------9-7------------------------9-7--5---5-7----|
D: --9-9-9-9-9-7-5-7-5-7--------9-9-9-9-9-7--5---5-7----|
A: --9-9-9-9-7-5-5-7-5-7--------9-9-9-9-7-5--3---3-5----|
E: --7-7-7-7-----3-5-3-5--------7-7-7-7------------5----|


  
    bridge

E: ----------------------------------------------------------|
B: ----------------------------------------------------------|
G: -9--------------------------------7----(7)------x-x-7-7-7-|
D: ------------------------------------------------x-x-7-7-7-|
A: -7-u-d-u-d-u-d-u-d-u-d-u-d-u-d-u--5----(5)------x-x-5-5-5-|
E: ----------------------------------------------------------|



E: ------------------------------------------------------------------|
B: ----------------------------------7---------------9---------------|
G: --8-------------------------------7---------------9---------------|
D: --9-------------------------------7---------------9---------------|
A: --9-------------------------------5-u-d-u-d-u-d-u-7-u-d-u-d-u-d-u-|
E: --7-u-d-u-d-u-d-u-d-u-d-u-d-u-d-u---------------------------------|




[ Tab from: http://www.guitartabs.cc/tabs/b/bad_religion/white_trash_2nd_generation_tab.html ]
   chorus  (white trash...)

E: -------------------------------------------|
B: --------7----------------10----------------|
G: --8-8-8-8----------------11-----10----8----|
D: --9-9-9-9-------12-12-12-12-----11----9----|
A: --9-9-9-9-------12-12-12-12-----11----9----|
E: --7-7-7---------10-10-10--------9-----7----|



E: -----------------------------------------------------------|
B: --3---3----3-3-3----------5---5----5-5-5--------7----------|
G: --4---4----4-4-4----------6---6----6-6-6--------8----------|
D: --5-x-5----5-5-5----------7-x-7----7-7-7--------9----------|
A: --5-x-5----5-5-5----------7-x-7----7-7-7--------9----------|
E: --3-x-3----3-3-3----------5-x-5----5-5-5--------7----------|





   lead fill 1

E: -----------------|
B: --7------(7)-----|
G: --9b------9b-----|
D: -----------------|
A: -----------------|
E: -----------------|



   solo

E: ------------------------------------------------|
B: --7--7--7--7--7--------5--5--5--5--5------------|
G: --9b-9b-9b-9b-9b-7-----7b-7b-7b-7b-7b-----------|
D: ------------------------------------------------|
A: ------------------------------------------------|
E: ------------------------------------------------|



E: ------------------------------------------------------|
B: --x-x-7-------x-x-12------------------x-x-10--12------|
G: --x-x-9b------x-x-14b-----------------x-x-12b-14b-----|
D: ------------------------------------------------------|
A: ------------------------------------------------------|
E: ------------------------------------------------------|
Comments