Bad Religion - Were Only Gonna Die From Our Own Arrogance Chords & Tabs

 

Were Only Gonna Die From Our Own Arrogance Chords & Tabs

Bad Religion Chords & Tabs

Version: 2 Type: Tab 0 ratings
1 star 2 stars 3 stars 4 stars 5 stars
comments

Were Only Gonna Die From Our Own Arrogance Tab

-------------------------------------------------------------------------------
        Were Only Gonna Die From Our Own Arrogance - Bad Religion
-------------------------------------------------------------------------------
Tabbed by:Dont ask12000
Email:dontask12000@gmail.com

Tuning: Normal
___________________________________________________________________________
Four times
Guitar 1
e|-------------------------------------------------------------------------| 
B|-------------------------------------------------------------------------| 
G|-------------------------------------------------------------------------| 
D|-------------------------------------------------------------------------| 
A|-5-7-5-7-5-7-5-10-5------------------------------------------------------| 
E|-3-5-3-5-3-5-3-8--3------------------------------------------------------| 
Guitar 2
e|-------------------------------------------------------------------------| 
B|-------------------------------------------------------------------------| 
G|-9-11b12\----------------------------------------------------------------| 
D|-X-----------------------------------------------------------------------| 
A|-7-----------------------------------------------------------------------| 
E|-------------------------------------------------------------------------|
guitar 2 plays the first chord the second time when guitar 1 is at the
eighth fret and plays the second note the fourth time when guitar 1 is at
the eighth fret
___________________________________________________________________________
six times
Early man walked away as modern man took control.
Their minds weren't all the same, to conquer was his big goal,
So he built his great empire and slaughtered his own kind,
Then he died a confused man, killed himself with his own mind.
e|-------------------------------------------------------------------------| 
B|-------------------------------------------------------------------------| 
G|-------------------------------------------------------------------------| 
D|-----------7777----------------------------------------------------------| 
A|-7777-5555-5555-7777-----------------------------------------------------| 
E|-5555-3333------5555-----------------------------------------------------| 
lyrics come in at the start of the thrid time through the riff, at the end of 
each line you should be at the end of the riff
___________________________________________________________________________
Four times
Guitar 1
e|-------------------------------------------------------------------------| 
B|-------------------------------------------------------------------------| 
G|-------------------------------------------------------------------------| 
D|-------------------------------------------------------------------------| 
A|-5-7-5-7-5-7-5-10-5------------------------------------------------------| 
E|-3-5-3-5-3-5-3-8--3------------------------------------------------------| 
Guitar 2
e|-------------------------------------------------------------------------| 
B|-------------------------------------------------------------------------| 
G|-9-11b12\----------------------------------------------------------------| 
D|-X-----------------------------------------------------------------------| 
A|-7-----------------------------------------------------------------------| 
E|-------------------------------------------------------------------------|
guitar 2 plays the first chord the second time when guitar 1 is at the
eighth fret and plays the second note the fourth time when guitar 1 is at
the eighth fret
___________________________________________________________________________

e|-------------------------------------------------------------------------| 
B|-------------------------------------------------------------------------| 
G|-------------------------------------------------------------------------| 
D|-----7-------------------------------------------------------------------| 
A|-7-5-5-7-----------------------------------------------------------------| 
E|-5-3---5-----------------------------------------------------------------| 
[ Tab from: http://www.guitartabs.cc/tabs/b/bad_religion/were_only_gonna_die_from_our_own_arrogance_tab_ver_2.html ]
four times times
Early man walked away as modern man took control.
Their minds weren't all the same, to conquer was his big goal,
e|-------------------------------------------------------------------------| 
B|-------------------------------------------------------------------------| 
G|-------------------------------------------------------------------------| 
D|-------------------77777777----------------------------------------------| 
A|-77777777-55555555-55555555-77777777-------------------------------------| 
E|-55555555-33333333----------55555555-------------------------------------| 

pm ........ ........ ........ ........
lyrics kick in second time through riff

two times
So he built his great empire and slaughtered his own kind,
Then he died a confused man, killed himself with his own mind.
e|-------------------------------------------------------------------------| 
B|-------------------------------------------------------------------------| 
G|-------------------------------------------------------------------------| 
D|-------------------77777777----------------------------------------------| 
A|-77777777-55555555-55555555-77777777-------------------------------------| 
E|-55555555-33333333----------55555555-------------------------------------|
faster
___________________________________________________________________________
four times
Guitar 1
e|-------------------------------------------------------------------------| 
B|-------------------------------------------------------------------------| 
G|-------------------------------------------------------------------------| 
D|-------------------------------------------------------------------------| 
A|-5-7-5-7-5-7-5-10-5------------------------------------------------------| 
E|-3-5-3-5-3-5-3-8--3------------------------------------------------------| 
Guitar 2
e|-------------------------------------------------------------------------| 
B|-------------------------------------------------------------------------| 
G|-9-11b12\----------------------------------------------------------------| 
D|-X-----------------------------------------------------------------------| 
A|-7-----------------------------------------------------------------------| 
E|-------------------------------------------------------------------------|
guitar 2 plays the first chord the second time when guitar 1 is at the
eighth fret and plays the second note the fourth time when guitar 1 is at
the eighth fret
___________________________________________________________________________

four times
Early man walked away as modern man took control.
Their minds weren't all the same, to conquer was his big goal,
So he built his great empire and slaughtered his own kind,
Then he died a confused man, killed himself with his own mind.
e|-------------------------------------------------------------------------| 
B|-------------------------------------------------------------------------| 
G|-------------------------------------------------------------------------| 
D|-----------7777----------------------------------------------------------| 
A|-7777-5555-5555-7777-----------------------------------------------------| 
E|-5555-3333------5555-----------------------------------------------------| 

____________________________________________________________________________
six times
We're only gonna die from our own arrogance
We're only gonna die from our own arrogance
We're only gonna die from our own arrogance
We're only gonna die from our own arrogance
We're only gonna die from our own arrogance
We're only gonna die from our own arrogance
Guitar 1
e|-------------------------------------------------------------------------| 
B|-------------------------------------------------------------------------| 
G|-------------------------------------------------------------------------| 
D|-------------------------------------------------------------------------| 
A|-5-7-5-7-5-7-5-10-7------------------------------------------------------| 
E|-3-5-3-5-3-5-3-8--5------------------------------------------------------| 
Guitar 2
e|-------------------------------------------------------------------------| 
B|-------------------------------------------------------------------------| 
G|-9~----------------------------------------------------------------------| 
D|-X-----------------------------------------------------------------------| 
A|-7~----------------------------------------------------------------------| 
E|-------------------------------------------------------------------------| 
guitar two only plays the chord the first time through the riff and it plays
it when guitar on is at the eighth fret
____________________________________________________________________________

e|-------------------------------------------------------------------------| 
B|-------------------------------------------------------------------------| 
G|-------------------------------------------------------------------------| 
D|-------------------------------------------------------------------------| 
A|-7-----------------------------------------------------------------------| 
E|-5-----------------------------------------------------------------------|
Comments