Bad Religion - The Voracious March Of Godliness Chords & Tabs

 

The Voracious March Of Godliness Chords & Tabs

Bad Religion Chords & Tabs

Version: 1 Type: Tab 0 ratings
1 star 2 stars 3 stars 4 stars 5 stars
comments

The Voracious March Of Godliness Tab

------------------------------------------------------------------------------- 
             THE VORACIOUS MARCH OF GODLINESS - Bad Religion 
------------------------------------------------------------------------------- 

By: the_davester (nirvanasongs@yahoo.com) 

SYMBOLS:

...PM...

e |--------------------------------| 
B |*---------------------3^4------*| 
G |--------------------------------| 
D |--------------------------------| 
A |*------------------------------*| 
E |--------------------------------| 
Repeat Palm-mute hammer-on 
section 



INTRO: Play four times for intro 
Guitar 1 Guitar 1 comes in on third time 
e ||-----------------|| 
B ||*---------------*|| 
G ||-----------------|| 
D ||---12--12--12----|| 
A ||*--10--10--10---*|| 
E ||-----------------|| 
| Guitar 2 
| ..........PM... 
e ||-----------------|| 
B ||*---------------*|| 
G ||-----------------|| 
D ||---5-5-5-5-5-5---|| 
A ||*--5-5-5-5-5-5--*|| 
E ||---3-3-3-3-3-3---|| 

VERSE: 
...let ring..................................... 
e ||------------------------------------------------------------| 
B ||*-----------------------------------------------------------| 
G ||------------------------8----------------5------------------| 
D ||-----------5------------8-----------3----5------------------| 
A ||*----------5------------6-----------3----3------------------| 
E ||-----------3------------------------1-----------------------| 
"Since the start of the seventeenth century there's been the 

...........................................PM... 
e |-------------------------------------------------|| 
B |------------------------------------------------*|| 
G |-------------------------------------------------|| 
D |-8---8--8--8---8--8--8---8--8--8--8--8--10-10----|| 
A |-6---6--6--6---6--6--6---6--6--6--6--6---8--8---*|| 
E |-------------------------------------------------|| 
scent of unseasoned wood burning in the air" 

CHORUS: 
e ||-------------------------------------| 
B ||*-----------------------------------*| 
G ||-----------8-8-8-8-3-3-3-3-----------| 
D ||---5-5-5-5-8-8-8-8-3-3-3-3-3-3-3-3---| 
A ||*--5-5-5-5-6-6-6-6-1-1-1-1-3-3-3-3--*| 
E ||---3-3-3-3-----------------1-1-1-1---| 
"Motives are translucent..." 
[ Tab from: http://www.guitartabs.cc/tabs/b/bad_religion/the_voracious_march_of_godliness_tab.html ]
e |-----------------------------------| 
B |-----------------------------------| 
G |------------------8-8-8-8-7-7-7-7--| 
D |--5-5-5-5-8-8-8-8-8-8-8-8-7-7-7-7--| 
A |--5-5-5-5-8-8-8-8-6-6-6-6-5-5-5-5--| 
E |--3-3-3-3-6-6-6-6------------------| 
"And unwittingly..." 

e |--------------------------------------------------| 
B |--------------------------------------------------| 
G |--------------------------------------------------| 
D |--8--8--8--8--8--8--8--8-10-10-10-10-10-10-10-10--| 
A |--6--6--6--6--6--6--6--6--8--8--8--8--8--8--8--8--| 
E |--------------------------------------------------| 
"The voracious march of godliness..." 

(End of Chorus) 
Guitar 1 
e |---3--3-3--------------------| 
B |*---------3--3^4--4-4--4-4--*| 
G |-----------------------------| 
D |-----------------------------| 
A |*---------------------------*| 
E |-----------------------------| 
| Guitar 2 
e |-----------------------------| 
B |*---------------------------*| 
G |---------------8-8-8-8-8-8---| 
D |---5-5-5-5-5-5-8-8-8-8-8-8---| 
A |*--5-5-5-5-5-5-6-6-6-6-6-6--*| 
E |---3-3-3-3-3-3---------------| 
"All the same..." 

e |--------------------------------------------------|| 
B |--------------------------------------------------|| 
G |-3-3-3-3-3-3-3-3-----------------7-7-7-7-7-7-7-7--|| 
D |-3-3-3-3-3-3-3-3-3-3-3-3-3-3-3-3-7-7-7-7-7-7-7-7--|| 
A |-1-1-1-1-1-1-1-1-3-3-3-3-3-3-3-3-5-5-5-5-5-5-5-5--|| 
E |-----------------1-1-1-1-1-1-1-1------------------|| 
"ahhhhh..." 

BRIDGE: 4x 
................................PM... 
e ||---------------------------------------| 
B ||*--------------------------------------| 
G ||---------------------------------------| 
D ||---8--8--8--8--8--8--8--8--8--8--8--8--| 
A ||*--6--6--6--6--6--6--6--6--6--6--6--6--| 
E ||---------------------------------------| 
"The voracious march of godliness" 

................................PM... 
e |---------------------------------------|| 
B |--------------------------------------*|| 
G |---------------------------------------|| 
D |-10-10-10-10-10-10-10-10-10-10-10-10---|| 
A |--8--8--8--8--8--8--8--8--8--8--8--8--*|| 
E |---------------------------------------|| 
"The voracious march of godliness" 

SONG STRUCTURE: 
Intro 
Verse 
Chorus 
Intro 
Verse 
Chorus 
Bridge 
End of Chorus 

===============================================================================
Comments