Bad Religion - Supersonic Chords & Tabs

 

Supersonic Chords & Tabs

Bad Religion Chords & Tabs

Version: 3 Type: Tab 0 ratings
1 star 2 stars 3 stars 4 stars 5 stars
comments

Supersonic Tab

   
-------------------------------------------------------------------------------
			     SUPERSONIC - Bad Religion
-------------------------------------------------------------------------------

Tabbed by: danc446
Email: danc446@yahoo.com

Tuning: Standard

INTRO
e|------------------------------------------------------------------|
B|------------------------------------------------------------------|
G|--9-9-9-12-9-12-14-12-14-15-14-12-9-9-9-12-9-12-14-12-14-15-14----|
D|--9-9-9-12-9-12-14-12-14-15-14-12-9-9-9-12-9-12-14-12-14-15-14-9--|
A|--7-7-7-10-7-10-12-10-12-13-12-10-7-7-7-10-7-10-12-10-12-13-12-9--|
E|---------------------------------------------------------------7--|

VERSE
e|---------------------------------------------|
B|---------------------------------------------|
G|---9-9-9-9--12--9-9-9-9--12------------------|
D|---9-9-9-9--12--9-9-9-9--12-10-10-10--9-9-9--|
A|---7-7-7-7--10--7-7-7-7--10-10-10-10--9-9-9--|
E|-----------------------------8--8--8--7-7-7--|
[ Tab from: http://www.guitartabs.cc/tabs/b/bad_religion/supersonic_tab_ver_3.html ]
CHORUS
e|--play this chord sequence 3X-----|---THEN---------------------------------|
B|----------------------------------|----------------------------------------|
G|-----------7------------------0---|-----------5-5-5-5--7-7-7-7-------------|
D|--10-------7-------5----------2---|-----------5-5-5-5--7-7-7-7-5-5-5-5-5-5-|
A|--10-------5-------5----------2---|-----------3-3-3-3--5-5-5-5-5-5-5-5-5-5-|
E|---8---------------3----------0---|----------------------------3-3-3-3-3-3-|

BRIDGE
e|---7--7--7--7--7--7-----------------------------------------7--7--7--7--7--7-|
B|---8--8--8--8--8--8-----------------------------------------8--8--8--8--8--8-|
G|---9--9--9--9--9--9--7-7-7-7-7-7----------------------------9--9--9--9--9--9-|
D|---9--9--9--9--9--9--7-7-7-7-7-7--5-5-5-5-5-5--9-9-9-9-9-9--9--9--9--9--9--9-|
A|---7--7--7--7--7--7--5-5-5-5-5-5--5-5-5-5-5-5--9-9-9-9-9-9--7--7--7--7--7--7-|
E|----------------------------------3-3-3-3-3-3--7-7-7-7-7-7-------------------|

e|----------------------------------------------------|
B|----------------------------------------------------|
G|--7-7-7-7-7-7-7--5-5-5-5-5-5--7-7-7-7-7-7--8-8-8-8--|
D|--7-7-7-7-7-7-7--5-5-5-5-5-5--7-7-7-7-7-7--8-8-8-8--|
A|--5-5-5-5-5-5-5--3-3-3-3-3-3--5-5-5-5-5-5--6-6-6-6--|
E|----------------------------------------------------|

OUTRO
e|-------------------------------------------------------------------|
B|-------------------------------------------------------------------|
G|--9-9-9-12-9-12-14-12-14-15-14-12-9-9-9-12-9-12-14-12-14-15-14-9-\\|
D|--9-9-9-12-9-12-14-12-14-15-14-12-9-9-9-12-9-12-14-12-14-15-14-9-\\|
A|--7-7-7-10-7-10-12-10-12-13-12-10-7-7-7-10-7-10-12-10-12-13-12-7-\\|
E|-----------------------------------------------------------------\\|

| /  slide up
| \  slide down
| h  hammer-on
| p  pull-off
| ~  vibrato
| +  harmonic
| x  Mute note

===============================================================================
Comments