Bad Religion - Suffer Chords & Tabs

 

Suffer Chords & Tabs

Bad Religion Chords & Tabs

Version: 1 Type: Chords 0 ratings
1 star 2 stars 3 stars 4 stars 5 stars
comments

Suffer Chords

   
band Bad Religion
song Suffer
album Suffer
good short and easy
but the crappiest solo ever

chords used:
e|------------------|
b|------------------|
g|-10---------------|
d|-10---7----3---2--|
a|--8---7----3---2--|
e|------5----1---0--|
    F5  A    F   E

intro:F5
A                            F
Did you ever see the concrete stares of everyday?
A                            F
The lunatic, the hypocrite, are all lost in the fray.
A                                      F
Can't you see their lives are just like yours?
A
An unturned stone, an undiscovered
F    E       A  F        E       A        F        E   A  
Door leading to the gift of hope renewed, eternity for you.
F                        E
The masses of humanity have always had to suffer.

F5

The businessman whose master plan controls the world each day
Is blind to indications of his species' slow decay.
Can't you see his life is just like yours?
An unturned stone, an undiscovered
Door leading to the gift of hope renewed, eternity for you.
The masses of humanity have always had to suffer.
[ Tab from: http://www.guitartabs.cc/tabs/b/bad_religion/suffer_crd.html ]
F,A
F          A            F             A
People blow their minds they choose to resign
F              A      F             A
This deformed society is part of the design.
F              A    F                   A
It'll never go away it's in the cards that way.
F           A               F              E
The masses of humanity have always, always had to suffer!

solo b-bend >>-pickslide
e|--5-5-5-5-5-5-5-5-----------------5-5-5-5-5-5-5-5--------|
b|--8b8b8b8b8b8b8b8b----------------5-5-5-5-5-5-5-5--------|
g|-------------------7b-7-5-5-7-7b--7b7b7b7b7b7b7b7b-------|
d|-------------------------7------------------------->>>>>-|
a|--------------------------------------------------->>>>>-|
e|--------------------------------------------------->>>>>-|

F      E       A     F     E       A        F        E   A
A door leading to the gift of hope renewed, eternity for you.
F                       E
The masses of humanity, still clinging to their dignity,
F                      E
The masses of humanity will always have to suffer.

outro b-bend c-click
e|--5-5-5-5-5-5-5-5-5---|                         F  A  Ac Ac G A
b|--8b8b8b8b8b8b8b8b8b--|    always have to suffer
g|----------------------|
d|----------------------|
a|----------------------|
e|----------------------|

told ya it was easy
tim robaczewski
Comments