Bad Religion - Stranger Than Fiction Chords & Tabs

 

Stranger Than Fiction Chords & Tabs

Bad Religion Chords & Tabs

Version: 1 Type: Bass Tab 0 ratings
1 star 2 stars 3 stars 4 stars 5 stars
comments

Stranger Than Fiction Bass Tab

Bad Religion 
Stranger Than Fiction 
Transcription by Dave Tagg, spedhead@ix.netcom.com. 

Intro: 
G:---------------------------------| 
D:-2222-1111--------------------| 
A:-------------44-22-----------2-| 
E:--------------------55-44-55---| 

Verse: 
People shock riding smack... 
G:--------------------------| 
D:-2222-1111----------------| 
A:--------------44-22----------| 
E:--------------------------| 
[ Tab from: http://www.guitartabs.cc/tabs/b/bad_religion/stranger_than_fiction_btab.html ]
Windows are watching... The streatlights conspiring.... and the lampost 
G:-----------------------------------------------------------------------| 
D:-----------------------------------------------------------------------| 
A:-----------------------------66666666666------------------7777777777---| 
E:-----77777777----------------------------------------------------------| 

can't stop crying... AHHHHHHHHHHH AHHH AHHHHHHHHHH 
G:-------------------------|-------------------------------------|-----------444------| 
D:-------------------------|--222222--444444-6666666--(2x)|-222-1111-----444--| 
A:--99999999999999----|-------------------------------------|-------------------| 
E:-------------------------|-------------------------------------|-------------------| 

life is the crumiest book i ever read.......... fill: 
G:--------------------------------------------------|----5--| 
D:-6xx6-6-6-44444-222222-1111111------------|---6-6-| 
A:-------------------------------------------------|--6----| 
E:-------------------------------------------------|-4-----| 
Comments