Bad Religion - Sorrow Chords & Tabs

 

Sorrow Chords & Tabs

Bad Religion Chords & Tabs

Version: 4 Type: Tab 0 ratings
1 star 2 stars 3 stars 4 stars 5 stars
comments

Sorrow Tab

   
BAD RELIGION- Sorrow

DANC446
danc446@yahoo.com

INTRO:        
Guitar 1
    +
e|-12::-|
B|-12::-|
G|-12::-|
D|------|
A|------|
E|------|

Guitar 2
e|----------------------------------|-----------------------------|
B|----------------------------------|-----------------------------|
G|-----5-5-5-5--7-7-7-7-------------|-----5-5-5-5-9-9-9-9-7-7-7-7-|
D|-2-2-5-5-5-5--7-7-7-7-5-5-5-5-5-5-|-5-5-5-5-5-5-9-9-9-9-7-7-7-7-|
A|-2-2-3-3-3-3--5-5-5-5-5-5-5-5-5-5-|-5-5-3-3-3-3-7-7-7-7-5-5-5-5-|
E|-0-0------------------3-3-3-3-3-3-|-3-3-------------------------|
pm ********************************   ***************************

e|-----------------------------|----------------------------------------------|
B|-----------------------------|----------------------------------------------|
G|-----5-5-5-5-7-7-7-7-9-9-9-9-|-----5-5-5-5-7-7-7-7--------------------------|
D|-5-5-5-5-5-5-7-7-7-7-9-9-9-9-|-2-2-5-5-5-5-7-7-7-7-5-5-5-5-5-5-5-5-5-5------|
A|-5-5-3-3-3-3-5-5-5-5-7-7-7-7-|-2-2-3-3-3-3-5-5-5-5-5-5-5-5-5-5-5-5-5-5------|
E|-3-3-------------------------|-0-0-----------------3-3-3-3-3-3-3-3-3-3--3-2-|
   ***************************   ***************************

Guitar 3
e|--------------|-----5:::-----|-----7:::-----||
B|--------------|-----6:::-----|-----8:::-----||
G|-----0:::-----|-----7:::-----|-----9:::-----||
D|-----5:::-----|-----7:::-----|-----9:::-----||
A|-----5:::-----|-----5:::-----|-----7:::-----||
E|-----3:::-----|--------------|-----0:::-----||

VERSE 1
e|----------------------------------|-----------------------------|
B|----------------------------------|-----------------------------|
G|-----5-5-5-5--7-7-7-7-------------|-----5-5-5-5-9-9-9-9-7-7-7-7-|
D|-2-2-5-5-5-5--7-7-7-7-5-5-5-5-5-5-|-5-5-5-5-5-5-9-9-9-9-7-7-7-7-|
A|-2-2-3-3-3-3--5-5-5-5-5-5-5-5-5-5-|-5-5-3-3-3-3-7-7-7-7-5-5-5-5-|
E|-0-0------------------3-3-3-3-3-3-|-3-3-------------------------|

e|-----------------------------|----------------------------------------------|
B|-----------------------------|----------------------------------------------|
G|-----5-5-5-5-7-7-7-7-9-9-9-9-|-----5-5-5-5-7-7-7-7--------------------------|
D|-5-5-5-5-5-5-7-7-7-7-9-9-9-9-|-2-2-5-5-5-5-7-7-7-7-5-5-5-5-5-5-5-5-5-5------|
A|-5-5-3-3-3-3-5-5-5-5-7-7-7-7-|-2-2-3-3-3-3-5-5-5-5-5-5-5-5-5-5-5-5-5-5------|
E|-3-3-------------------------|-0-0-----------------3-3-3-3-3-3-3-3-3-3--3-2-|

VERSE 2,3

e|----------------------------------|-----------------------------|
B|----------------------------------|-----------------------------|
G|-----5-5-5-5--7-7-7-7-------------|-----5-5-5-5-9-9-9-9-7-7-7-7-|
D|-2-2-5-5-5-5--7-7-7-7-5-5-5-5-5-5-|-5-5-5-5-5-5-9-9-9-9-7-7-7-7-|
A|-2-2-3-3-3-3--5-5-5-5-5-5-5-5-5-5-|-5-5-3-3-3-3-7-7-7-7-5-5-5-5-|
E|-0-0------------------3-3-3-3-3-3-|-3-3-------------------------|
[ Tab from: http://www.guitartabs.cc/tabs/b/bad_religion/sorrow_tab_ver_4.html ]
e|-----------------------------|---------------------|
B|-----------------------------|---------------------|
G|-----5-5-5-5-7-7-7-7-9-9-9-9-|-----5-5-5-5-7-7-7-7-|
D|-5-5-5-5-5-5-7-7-7-7-9-9-9-9-|-2-2-5-5-5-5-7-7-7-7-|
A|-5-5-3-3-3-3-5-5-5-5-7-7-7-7-|-2-2-3-3-3-3-5-5-5-5-|
E|-3-3-------------------------|-0-0-----------------|

CHORUS
e|---------------------------------------------------------------|
B|---------------------------------------------------------------|
G|------------7-7-7-7-10-10-10-10------------9-9-9-9-7-7-7-7-7---|
D|------------7-7-7-7-10-10-10-10------------9-9-9-9-7-7-7-7-7---|
A|-----5------5-5-5-5--8--8--8--8----5-------7-7-7-7-5-5-5-5-5---|
E|---3---3-0-----------------------3---3-0-----------------------|

e|--------------------------------------------------------------------------|
B|--------------------------------------------------------------------------|
G|-----------7-10-9--7-7-7-7-7-7-7-7-7-7-7-7-7:-----------------------------|
D|-----------7-10-9--7-7-7-7-7-7-7-7-7-7-7-7-7:--5-5-5-5-5-5-5-5-5-5-5-5-5--|
A|----5------5--8-7--5-5-5-5-5-5-5-5-5-5-5-5-5:--5-5-5-5-5-5-5-5-5-5-5-5-5--|
E|--3---3-0--------------------------------------3-3-3-3-3-3-3-3-3-3-3-3-3--|

SOLO   Played over VERSE 2,3
e|-------------------------------------------------------------------|
B|-13----13----------------------------------------------------------|
G|-12b14-12b14--12----12--------------12-14-12~----------12b14r12----|
D|-----------------14----14-12--12-14--------------12-14----------14-|
A|----------------------------------------------14-------------------|
E|-------------------------------------------------------------------|

e|---------------------------------------------------------------------------|
B|---------------------------------------------------------------------------|
G|------------------------------------------------------12----12-14-12~------|
D|-12h14-12h14-12h14-12-14-12-12h14-12h14p12~-----12-14----14----------------|
A|---------------------------------------------14----------------------------|
E|---------------------------------------------------------------------------|

e|---------------------------------------------------------12----------------|
B|--------------13-15-13-12-13p12-----------------------12----12-------------|
G|--12-12-12h14-------------------14-12-14-12-14b16--14b16-------14-12-------|
D|---------------------------------------------------------------------------|
A|---------------------------------------------------------------------------|
E|---------------------------------------------------------------------------|

e|------------------------|
B|------------------------|
G|--14b15r14p12--14p12~~--|
D|------------------------|
A|------------------------|
E|------------------------|

OUTRO
Guitars 1,2    Guitar 3
e|---7---|     e|---0---|
B|---8---|     B|---0---|
G|---9---|     G|---0---|
D|---9---|     D|---2---|
A|---7---|     A|---2---|
E|---0---|     E|---0---|

| /  slide up
| \  slide down
| h  hammer-on
| p  pull-off
| ~  vibrato
| +  harmonic
| x  Mute note
| :  Let ring
Comments