Bad Religion - Sorrow Chords & Tabs

 

Sorrow Chords & Tabs

Bad Religion Chords & Tabs

Version: 3 Type: Tab 0 ratings
1 star 2 stars 3 stars 4 stars 5 stars
comments

Sorrow Tab

   
Props goto "Lazzi Luigi" 
I thought i had to find a tab with the solo intact, so i found this one
and decided to put it on a page where everybody can see it. So enjoy!
Dusty CuPbOaRdS

From here on forth this tab is unaltered from it's original state:
Bad Religion - Sorrow

Though the previous version of the song by Stefan Hornfeldt=20
was quite correct, I added the guitar solo and modified a=20
few chords I found wrong.


Intro:
clean electric
   A9
E--12-------------------------------------------------------
B--12-------------------------------------------------------
G--14-------------------------------------------------------
D--14-------------------------------------------------------
A--12-------------------------------------------------------
E--12-------------------------------------------------------

Verse:
light distorsion
(first verse palm muted)

  E5      C5      D5      G5
E-----------------------------------------------------------
B-----------------------------------------------------------
G---------5-5-5-5-7-7-7-7-----------------------------------
D-2-2-2-2-5-5-5-5-7-7-7-7-5-5-5-5-5-5-5-5-5-5-5-5-5-5-5-5---
A-2-2-2-2-3-3-3-3-5-5-5-5-5-5-5-5-5-5-5-5-5-5-5-5-5-5-5-5---
E-0-0-0-0-----------------3-3-3-3-3-3-3-3-3-3-3-3-3-3-3-3---
                                          Father can you...
  C5      E5      D5
E-----------------------------------------------------------
B-----------------------------------------------------------
G-5-5-5-5-9-9-9-9-7-7-7-7-7-7-7-7-7-7-7-7-7-7-7-7-----------
D-5-5-5-5-9-9-9-9-7-7-7-7-7-7-7-7-7-7-7-7-7-7-7-7-----------
A-3-3-3-3-7-7-7-7-5-5-5-5-5-5-5-5-5-5-5-5-5-5-5-5-----------
E-----------------------------------------------------------
                  How have...

  G5      C5      D5      E5
E-----------------------------------------------------------
B-----------------------------------------------------------
G---------5-5-5-5-7-7-7-7-9-9-9-9-9-9-9-9-9-9-9-9-9-9-9-9---
D-5-5-5-5-5-5-5-5-7-7-7-7-9-9-9-9-9-9-9-9-9-9-9-9-9-9-9-9---
A-5-5-5-5-3-3-3-3-5-5-5-5-7-7-7-7-7-7-7-7-7-7-7-7-7-7-7-7---
E-3-3-3-3---------------------------------------------------
  I curse the day...                                 And...

  C5      D5      G5
E-----------------------------------------------------------
B-----------------------------------------------------------
G-5-5-5-5-7-7-7-7-------------------------------------------
D-5-5-5-5-7-7-7-7-5-5-5-5-5-5-5-5-5-5-5-5-5-5-5-5-----------
A-3-3-3-3-5-5-5-5-5-5-5-5-5-5-5-5-5-5-5-5-5-5-5-5-----------
E-----------------3-3-3-3-3-3-3-3-3-3-3-3-3-3-3-3-----------
..all the sorrow...

E-----------------------------------------------------------
B-----------------------------------------------------------
G-----------------------------------------------------------
D-----------------------------------------------------------
A-----------------------------------------------------------
E-3-2-0-----------------------------------------------------

And then repeat. The other guitar plays these chords from
the second verse till the end of the song instead of the
power chords (it plays them during the chorus too):

E-  G  C  D
(follow the order of the correspondent power chords)

Chorus:
[ Tab from: http://www.guitartabs.cc/tabs/b/bad_religion/sorrow_tab_ver_3.html ]
       E5      C5      G5          E5      C5      G5
------------------------------------------------------------
------------------------------------------------------------
---------------5-5-5-5---------------------5-5-5-5----------
---0---2-2-2-2-5-5-5-5-5-5-5---0---2-2-2-2-5-5-5-5-5-5-5----
-------2-2-2-2-3-3-3-3-5-5-5-------2-2-2-2-3-3-3-3-5-5-5----
-3---2-0-0-0-0---------3-3-3-3---2-0-0-0-0---------3-3-3----
   There will be...              There will be...

       E5      C5      G5      E5      D5
------------------------------------------------------------
------------------------------------------------------------
---------------5-5-5-5-----------------7-7-7-7-7-7-7-7-7-7-7
---0---2-2-2-2-5-5-5-5-5-5-5-5-2-2-2-2-7-7-7-7-7-7-7-7-7-7-7
-------2-2-2-2-3-3-3-3-5-5-5-5-2-2-2-2-5-5-5-5-5-5-5-5-5-5-5
-3---2-0-0-0-0---------3-3-3-3-0-0-0-0----------------------
   There will be...        ... no..  ..more

This is the little riff at the end of the first chorus

E-/12\-------------------------------------------------------
B-/12\-------------------------------------------------------
G------------------------------------------------------------
D------------------------------------------------------------
A------------------------------------------------------------
E------------------------------------------------------------

Solo:
(the other guitar plays the same power chords as the verse)

E-10-b-(12)--10-b-(12)-r-------------------------------------
B-10-b-(12)--10-b-(12)-r-8-h-10-p-8---------8-h-10-8---------
G-----------------------------------9-7-h-9------------------
D------------------------------------------------------------
A------------------------------------------------------------
E------------------------------------------------------------

E------------------------------------------------------------
B--------------8---------------------------------------------
G-------7-h-9----9-7-h-9-7-h-9-9-7-h-9-7-7-h-9-7-h-9-7-h-9-7-
D-7-h-9------------------------------------------------------
A------------------------------------------------------------
E------------------------------------------------------------

E----------------------------------7-8-10-8-7-8-7------------
B-------------8---8-h-10-8--8-8-10----------------10-8-10-8--
G-------7-h-9---9--------------------------------------------
D-7-h-9------------------------------------------------------
A------------------------------------------------------------
E------------------------------------------------------------

E--------------------12-10-----------------------------------
B-10-b-(12)----12-12-------12-10-8---10-b-(12)-r-8-10-8------
G----------------------------------9-------------------------
D------------------------------------------------------------
A------------------------------------------------------------
E------------------------------------------------------------

Last chord:

  E-
E-7----------------------------------------------------------
B-8----------------------------------------------------------
G-9----------------------------------------------------------
D-9----------------------------------------------------------
A-7----------------------------------------------------------
E-7----------------------------------------------------------

Order:
Intro
Verse (palm muted)
Verse
Verse
Chorus
Verse
Chorus
Solo
Chorus
Chorus
Last chord
Comments