Bad Religion - Sorrow Chords & Tabs

 

Sorrow Chords & Tabs

Bad Religion Chords & Tabs

Version: 1 Type: Tab 0 ratings
1 star 2 stars 3 stars 4 stars 5 stars
comments

Sorrow Tab

I am still working on the solo so just be patient

---------------------------------------------------------
---------------------------------------------------------
---------5-55-55-7-77-77---------------------------------
-2-22-22-5-55-55-7-77-77-5-55-55-5-55-55-5-55-55-5-55-55-
-2-22-22-3-33-33-5-55-55-5-55-55-5-55-55-5-55-55-5-55-55-
-0-00-00-----------------3-33-33-3-33-33-3-33-33-3-33-33-

---------------------------------------------------------
---------------------------------------------------------
---------5-55-55-9-99-99-7-77-77-7-77-77-7-77-77-7-77-77-
-5-55-55-5-55-55-9-99-99-7-77-77-7-77-77-7-77-77-7-77-77-
-5-55-55-3-33-33-7-77-77-5-55-55-5-55-55-5-55-55-5-55-55-
-3-33-33-------------------------------------------------
[ Tab from: http://www.guitartabs.cc/tabs/b/bad_religion/sorrow_tab.html ]
---------------------------------------------------------
---------------------------------------------------------
---------5-55-55-7-77-77-9-99-99-9-99-99-9-99-99-9-99-99-
-5-55-55-5-55-55-7-77-77-9-99-99-9-99-99-9-99-99-9-99-99-
-5-55-55-3-33-33-5-55-55-7-77-77-7-77-77-7-77-77-7-77-77-
-3-33-33-------------------------------------------------

-------------------------------------
-------------------------------------
---------5-55-55-7-77-77-------------
-5-55-55-5-55-55-7-77-77-------------
-5-55-55-3-33-33-5-55-55-2-4---------
-3-33-33-----------------3-2---------
play through all of that twice and then play the chorus

chorus
------------------------------
------------------------------
---------5-55-55---------77---
-2-22-22-5-55-55-5-55-55-77-44
-2-22-22-3-33-33-5-55-55-55-44
-0-00-00---------3-33-33----22

play that three times and then play this
-----------------------------------------------
-----------------------------------------------
---------5-55-55---------77----7777777777777777
-2-22-22-5-55-55-5-55-55-77-55-7777777777777777
-2-22-22-3-33-33-5-55-55-55-55-5555555555555555
-0-00-00---------3-33-33----33-----------------
that is most of the song I will post the solo when i am done transcribing it
Comments