Bad Religion - Social Suicide Chords & Tabs

 

Social Suicide Chords & Tabs

Bad Religion Chords & Tabs

Version: 1 Type: Tab 0 ratings
1 star 2 stars 3 stars 4 stars 5 stars
comments

Social Suicide Tab

Song: Social Suicide
Band: Bad Religion
Album: The Empire Strikes First
Label: Epitaph Records
Tabbed By: Donahue2

Tuning: Standard

INTRO:
e|-------------------------|
B|-------------------------|
G|--------------555--------|X4
D|--777\5-777\5-555-5555---|
A|--777\5-777\5-333-5555---|
E|--555\3-555\3-----3333---|

(On third time, Guitar 2 pick slides)
e|-------|
B|-------|
G|-------|
D|--5\/--|
A|--5\/--|
E|--3\/--|

VERSE: (Same chords as the Intro)
"Right now!  Well, it's finally time to face my fears
  Gonna get the hell out of here
  And create a fresher atmosphere
  But the Consequence is clear"
[ Tab from: http://www.guitartabs.cc/tabs/b/bad_religion/social_suicide_tab.html ]
CHORUS:
e|-----------------------------------------------------------------|
B|-----------------------------------------------------------------|
G|--55-555-----55------------------22-222-2------55-5-44-444----22-|
D|--55-555-333-55-55-555-5-33-3-22-22-222-2-33-3-55-5-44-444-33-22-|
A|--33-333-333-33-55-555-5-33-3-22-00-000-0-33-3-33-3-22-222-33-00-|
E|---------111----33-333-3-11-1-00----------11-1-------------11----|
								PM
"There's a furnace set on high and a yearning undefined
 But it's time to turn the tide, It's social Suicide"

BRIDGE: (Play Intro/Chorus. On fourth time Guitar 2 plays):
e|--7~-8~-9^--|
B|------------|
G|------------|
D|------------|
A|------------|
E|------------|

Verse:
"Like you! Perseverance is a useless tool, just a patron on a ship of fools
  Feigning interest in the cast and crew, while you've broken every single rule."

Chorus:
"There's a burner set on high and a yearning undefined
Now it's time to turn the tide.  It's Social Suicide"

BRIDGE2:
e|------------------------|
B|------------------------|
G|--------10-5555------7-|X5
D|--77777-10-5555-5555-7--|
A|--77777-8--3333-5555-5--|
E|--55555---------3333----|

(On sixth time)
e|---------------------|
B|---------------------|
G|---------------------|
D|--7777777777777-7\/--|
A|--7777777777777-7\/--|
E|--5555555555555-5\/--|
"Shadows entertain the unwashed masses, scholars explain their numb reactions
  I don't even know if I can ever find the truth, But I'm sure it wont come from 
 you"

Chorus:
"There's a furnace set on high and a yearning undefined
  But it's time to turn the tide.  It's social suicide."

Intro

Donahue2: point_blanc99@hotmail.com
Comments