Bad Religion - Sinister Rouge Chords & Tabs

 

Sinister Rouge Chords & Tabs

Bad Religion Chords & Tabs

Version: 1 Type: Tab 1 rating
1 star 2 stars 3 stars 4 stars 5 stars
comments

Sinister Rouge Tab

Bad Religion
"Sinister Rouge"
The Empire Strikes First
Tabbed By: Ronny
XFragileTimeX@yahoo.com




Intro

D - A - A# - highF - highG

Fill
D, with the slide to D#.

Verse

D - A - A# --- highF - highE - D - C

Chorus

D -- highE - highF - A - A# --- highF - highE

SOLO
[ Tab from: http://www.guitartabs.cc/tabs/b/bad_religion/sinister_rouge_tab.html ]
E-----------------15b17-13-12-13-13--15p13p12------------17-15------------------------13~~~15-13-12-13~~~12--13-10------------ 
B----15~~~~14~~~~~-------------------------------15~~~~--------18-15-13-------------------------------------------13-10------- 
G-----------------------------------------------------------------------15--12~~~~--------------------------------------10---- 
D--------------------------------------------------------------------------------------------------------------------------10- 
A----------------------------------------------------------------------------------------------------------------------------- 
E----------------------------------------------------------------------------------------------------------------------------- 


the 17 is repeated,but I've indicated it with vibrato marks, then slid to the 18, and back again, listen and see what I mean 

E----17~~~~~~/18/17---17~~~~~/18/17--17-17---18-18---20-20--22-22-20-20---18-18-17- 
B---------------------------------------------------------------------------------- 
G---------------------------------------------------------------------------------- 
D---------------------------------------------------------------------------------- 
A---------------------------------------------------------------------------------- 
E---------------------------------------------------------------------------------- 
Comments