Bad Religion - Raise Your Voice Chords & Tabs

 

Raise Your Voice Chords & Tabs

Bad Religion Chords & Tabs

Version: 1 Type: Tab 0 ratings
1 star 2 stars 3 stars 4 stars 5 stars
comments

Raise Your Voice Tab

   
------------------------------------------------------------------------------- 
                   RAISE YOUR VOICE! - Bad Religion 
------------------------------------------------------------------------------- 
By: the_davester (nirvanasongs@yahoo.com) 


SYMBOLS:

x Pick Scrape

|------| Repeat section 
|*----*| 
|------| 
|------| 
|*----*| 
|------|


[ Tab from: http://www.guitartabs.cc/tabs/b/bad_religion/raise_your_voice_tab.html ]
CHORUS: x4 
e ||----------------------------------------------------|| 
B ||*--------------------------------------------------*|| 
G ||------------4-4--4----------------------------------|| 
D ||---6-6--6-4-4-4--4-4--2--2-2--4--4-4--6-6-6-6-6-6---|| 
A ||*--6-6--6-4-2-2--2-4--2--2-2--4--4-4--6-6-6-6-6-6--*|| 
E ||---4-4--4-2--------2--0--0-0--2--2-2--4-4-4-4-4-4---|| 
| 
| 
e ||--------------------------------------9-8-9-8-9-8---|| 
B ||*--------------------------------------------------*|| 
G ||----------------------------------------------------|| 
D ||----------------------------------------------------|| 
A ||*--------------------------------------------------*|| 
E ||----------------------------------------------------|| 
"Fa fa fa fa..." "Raise your voice..." 

VERSE: x3 
e ||--------------------------------|---------------------------|| 
B ||*------------------------------*|---------------------------|| 
G ||----4-4-4--------6-6-6----------|--4-4-4-------6-6-6-8-8-8--|| 
D ||----4-4-4-4--4-4-6-6-6-6--6-6---|--4-4-4-4-4-4-6-6-6-8-8-8--|| 
A ||*---2-2-2-4--4-4-4-4-4-6--6-6--*|--2-2-2-4-4-4-4-4-4-6-6-6--|| 
E ||----------2--2-2-------4--4-4---|--------2-2-2--------------|| 
"Don't be played..." "Nobody is gonna pay..." 

BRIDGE: 
A: B: 
e ||---------|-9-8-9-8-| After the first 'Raise your voice' play 
B ||---------|---------| A. 
G ||---------|---------| Start playing B over and over after the 
D ||--x-x-x--|---------| second 'Raise your voice.' 
A ||--x-x-x--|---------| Play A again after the third 'Raise your voice.' 
E ||--x-x-x--|---------| After the fourth 'Raise your voice' play 
the chorus palm-muted. 
Finally, after the sixth 'raise your voice,' 
play the chorus full-out four times. 

SONG STRUCTURE: 
Chorus 
Verse 
Chorus 
Verse 
Bridge 

===============================================================================
Comments