Bad Religion - Punk Rock Song Chords & Tabs

 

Punk Rock Song Chords & Tabs

Bad Religion Chords & Tabs

Version: 2 Type: Tab 1 rating
1 star 2 stars 3 stars 4 stars 5 stars
comments

Punk Rock Song Tab

Punk rock song
Bad religion
By : Josele



Intro 
e:---------------------------|------------------------------------------| 
B:---------------------------|------------------------------------------|
G:----6--6--6/9--9--9--9--9--|------------------------------------------|
D:----6--6--6/9--9--9--9--9--|--9--9--9/6--6--6--6----------------------|
A:----4--4--4/7--7--7--7--7--|--9--9--9/6--6--6--6----------------------|
E:---------------------------|--7--7--7/4--4--4--4----------------------|
  
e:---------------------------|------------------------------------------| 
B:---------------------------|------------------------------------------|
G:----6--6--6/9--9--9--9--9--|------------------------------------------|
D:----6--6--6/9--9--9--9--9--|--9--9--9/6--6--6--6----------------------|
A:----4--4--4/7--7--7--7--7--|--9--9--9/6--6--6--6----------------------|
E:---------------------------|--7--7--7/4--4--4--4----------------------|

Verse
e:---------------------------|------------------------------------------|
B:---------------------------|------------------------------------------|
G:----6--6--6/9--9--9--9--9--|----------11-11-11-11-11------------------|
D:----6--6--6/9--9--9--9--9--|--9--9--9/11-11-11-11-11------------------|
A:----4--4--4/7--7--7--7--7--|--9--9--9/9--9--9--9--9-------------------|
E:---------------------------|--7--7--7---------------------------------|

  Verse
e:---------------------------|------------------------------------------|
B:---------------------------|------------------------------------------|
G:----6--6--6/9--9--9--9--9--|------------------------------------------|
D:----6--6--6/9--9--9--9--9--|--9--9--9/6--6--6--6----------------------|
A:----4--4--4/7--7--7--7--7--|--9--9--9/6--6--6--6----------------------|
E:---------------------------|--7--7--7/4--4--4--4----------------------|

Bridge
e:----------------------------------------------------------------------|
B:----------------------------------------------------------------------|
G:--------------------9-9-9-9-9-9-9-9-----------------9-9-9-------------|
D:----7-7-7-7-7-7-7-7-9-9-9-9-9-9-9-9-9-9-9-9-9-9-9-9-9-9-9-9---9-9-9---|
A:----7-7-7-7-7-7-7-7-7-7-7-7-7-7-7-7-9-9-9-9-9-9-9-9-7-7-7-9---9-9-9---|
E:----5-5-5-5-5-5-5-5-----------------7-7-7-7-7-7-7-7-------7---7-7-7---|


Verse
e:---------------------------|------------------------------------------|
B:---------------------------|------------------------------------------|
G:----6--6--6/9--9--9--9--9--|----------11-11-11-11-11------------------|
D:----6--6--6/9--9--9--9--9--|--9--9--9/11-11-11-11-11------------------|
A:----4--4--4/7--7--7--7--7--|--9--9--9/9--9--9--9--9-------------------|
E:---------------------------|--7--7--7---------------------------------|


Verse
e:---------------------------|------------------------------------------|
B:---------------------------|------------------------------------------|
G:----6--6--6/9--9--9--9--9--|------------------------------------------|
D:----6--6--6/9--9--9--9--9--|--9--9--9/6--6--6--6----------------------|
A:----4--4--4/7--7--7--7--7--|--9--9--9/6--6--6--6----------------------|
E:---------------------------|--7--7--7/4--4--4--4----------------------|


Bridge
e:----------------------------------------------------------------------|
B:----------------------------------------------------------------------|
G:--------------------9-9-9-9-9-9-9-9-----------------9-9-9-------------|
D:----7-7-7-7-7-7-7-7-9-9-9-9-9-9-9-9-9-9-9-9-9-9-9-9-9-9-9-9---9-9-9---|
A:----7-7-7-7-7-7-7-7-7-7-7-7-7-7-7-7-9-9-9-9-9-9-9-9-7-7-7-9---9-9-9---|
E:----5-5-5-5-5-5-5-5-----------------7-7-7-7-7-7-7-7-------7---7-7-7---|


e:----------------------------------------------------------------------|
B:----------------------------------------------------------------------|
G:----------------------------------------------------------------------|
D:--9-9-9-9-9-9-9-9-9-9-9-9---------------------------------------------|
A:--9-9-9-9-9-9-9-9-9-9-9-9---------------------------------------------|
E:--7-7-7-7-7-7-7-7-7-7-7-7---------------------------------------------|


Chorus
e:-----15----15----15-------15------15----15----15h13--15-16--16-16h15--|
B:--13----13----13----13-13------13----13----13-------------------------|
G:----------------------------------------------------------------------|
D:----------------------------------------------------------------------|
A:----------------------------------------------------------------------|
E:----------------------------------------------------------------------|


e:--15--15-13--15-16-15------15----15---13--15--------------------------|
B:------------------------13----13--------------------------------------|
G:----------------------------------------------------------------------|
D:----------------------------------------------------------------------|
A:----------------------------------------------------------------------|
E:----------------------------------------------------------------------|
                      

e:---------------------------|------------------------------------------| 
B:---------------------------|------------------------------------------|
G:----6--6--6/9--9--9--9--9--|------------------------------------------|
D:----6--6--6/9--9--9--9--9--|--9--9--9/6--6--6--6----------------------|
A:----4--4--4/7--7--7--7--7--|--9--9--9/6--6--6--6----------------------|
E:---------------------------|--7--7--7/4--4--4--4----------------------|


e:---------------------------|------------------------------------------| 
B:---------------------------|------------------------------------------|
G:----6--6--6/9--9--9--9--9--|------------------------------------------|
D:----6--6--6/9--9--9--9--9--|--9--9--9/6--6--6--6----------------------|
A:----4--4--4/7--7--7--7--7--|--9--9--9/6--6--6--6----------------------|
E:---------------------------|--7--7--7/4--4--4--4----------------------|

Verse
e:---------------------------|------------------------------------------|
B:---------------------------|------------------------------------------|
G:----6--6--6/9--9--9--9--9--|----------11-11-11-11-11------------------|
D:----6--6--6/9--9--9--9--9--|--9--9--9/11-11-11-11-11------------------|
A:----4--4--4/7--7--7--7--7--|--9--9--9/9--9--9--9--9-------------------|
E:---------------------------|--7--7--7---------------------------------|




[ Tab from: http://www.guitartabs.cc/tabs/b/bad_religion/punk_rock_song_tab_ver_2.html ]
Verse
e:---------------------------|------------------------------------------|
B:---------------------------|------------------------------------------|
G:----6--6--6/9--9--9--9--9--|------------------------------------------|
D:----6--6--6/9--9--9--9--9--|--9--9--9/6--6--6--6----------------------|
A:----4--4--4/7--7--7--7--7--|--9--9--9/6--6--6--6----------------------|
E:---------------------------|--7--7--7/4--4--4--4----------------------|


Bridge
e:----------------------------------------------------------------------|
B:----------------------------------------------------------------------|
G:--------------------9-9-9-9-9-9-9-9-----------------9-9-9-------------|
D:----7-7-7-7-7-7-7-7-9-9-9-9-9-9-9-9-9-9-9-9-9-9-9-9-9-9-9-9---9-9-9---|
A:----7-7-7-7-7-7-7-7-7-7-7-7-7-7-7-7-9-9-9-9-9-9-9-9-7-7-7-9---9-9-9---|
E:----5-5-5-5-5-5-5-5-----------------7-7-7-7-7-7-7-7-------7---7-7-7---|


e:----------------------------------------------------------------------|
B:----------------------------------------------------------------------|
G:----------------------------------------------------------------------|
D:--9-9-9-9-9-9-9-9-9-9-9-9---------------------------------------------|
A:--9-9-9-9-9-9-9-9-9-9-9-9---------------------------------------------|
E:--7-7-7-7-7-7-7-7-7-7-7-7---------------------------------------------|


Chorus
e:-----15----15----15-------15------15----15----15h13--15-16--16-16h15--|
B:--13----13----13----13-13------13----13----13-------------------------|
G:----------------------------------------------------------------------|
D:----------------------------------------------------------------------|
A:----------------------------------------------------------------------|
E:----------------------------------------------------------------------|

e:--15--15-13--15-16-15------15----15---13--15--------------------------|
B:------------------------13----13--------------------------------------|
G:----------------------------------------------------------------------|
D:----------------------------------------------------------------------|
A:----------------------------------------------------------------------|
E:----------------------------------------------------------------------|

e:---------------------------|------------------------------------------| 
B:---------------------------|------------------------------------------|
G:----6--6--6/9--9--9--9--9--|------------------------------------------|
D:----6--6--6/9--9--9--9--9--|--9--9--9/6--6--6--6----------------------|
A:----4--4--4/7--7--7--7--7--|--9--9--9/6--6--6--6----------------------|
E:---------------------------|--7--7--7/4--4--4--4----------------------|

Solo 
e:--8-8-----8-8-----8-8---8-------8-8-10-10-11-11-10-10-8-6-8-----7-----| 
B:------7-7-----7-7-----7-----7-7-------------------------------6---6---|
G:----------------------------------------------------------------------|
D:----------------------------------------------------------------------|
A:----------------------------------------------------------------------|
E:----------------------------------------------------------------------|



e:-------------------------------8--------------------------------------| 
B:-----------7---------------7-----7---7-5------------------------------|
G:---7-4---4---7-4-3---3-4-7---7-----7----------------------------------|
D:----------------------------------------------------------------------|
A:----------------------------------------------------------------------|
E:----------------------------------------------------------------------|

e:---------------------------|------------------------------------------|
B:---------------------------|------------------------------------------|
G:----6--6--6/9--9--9--9--9--|----------11-11-11-11-11------------------|
D:----6--6--6/9--9--9--9--9--|--9--9--9/11-11-11-11-11------------------|
A:----4--4--4/7--7--7--7--7--|--9--9--9/9--9--9--9--9-------------------|
E:---------------------------|--7--7--7---------------------------------|
      *  *  * *  *  *  *  *     *  *  * *  *  *  *  *

e:---------------------------|------------------------------------------|
B:---------------------------|------------------------------------------|
G:----6--6--6/9--9--9--9--9--|----------11-11-11-11-11------------------|
D:----6--6--6/9--9--9--9--9--|--9--9--9/11-11-11-11-11------------------|
A:----4--4--4/7--7--7--7--7--|--9--9--9/9--9--9--9--9-------------------|
E:---------------------------|--7--7--7---------------------------------|
      *  *  * *  *  *  *  *     *  *  * *  *  *  *  *

e:---------------------------|------------------------------------------|
B:---------------------------|------------------------------------------|
G:----6--6--6/9--9--9--9--9--|----------11-11-11-11-11------------------|
D:----6--6--6/9--9--9--9--9--|--9--9--9/11-11-11-11-11------------------|
A:----4--4--4/7--7--7--7--7--|--9--9--9/9--9--9--9--9-------------------|
E:---------------------------|--7--7--7---------------------------------|
      *  *  * *  *  *  *  *     *  *  * *  *  *  *  *

e:---------------------------|------------------------------------------|
B:---------------------------|------------------------------------------|
G:----6--6--6/9--9--9--9--9--|----9-------------------------------------|
D:----6--6--6/9--9--9--9--9--|--9-9--9-9-9-9-9-9-9----------------------|
A:----4--4--4/7--7--7--7--7--|--9-7--9-9-9-9-9-9-9----------------------|
E:---------------------------|--7----7-7-7-7-7-7-7----------------------|
      *  *  * *  *  *  *  *            * * * * * *

Bridge
e:----------------------------------------------------------------------|
B:----------------------------------------------------------------------|
G:--------------------9-9-9-9-9-9-9-9-----------------9-9-9-------------|
D:----7-7-7-7-7-7-7-7-9-9-9-9-9-9-9-9-9-9-9-9-9-9-9-9-9-9-9-9---9-9-9---|
A:----7-7-7-7-7-7-7-7-7-7-7-7-7-7-7-7-9-9-9-9-9-9-9-9-7-7-7-9---9-9-9---|
E:----5-5-5-5-5-5-5-5-----------------7-7-7-7-7-7-7-7-------7---7-7-7---|

e:----------------------------------------------------------------------|
B:----------------------------------------------------------------------|
G:----------------------------------------------------------------------|
D:--9-9-9-9-9-9-9-9-9-9-9-9---------------------------------------------|
A:--9-9-9-9-9-9-9-9-9-9-9-9---------------------------------------------|
E:--7-7-7-7-7-7-7-7-7-7-7-7---------------------------------------------|
Comments