Bad Religion - Prove It Chords & Tabs

 

Prove It Chords & Tabs

Bad Religion Chords & Tabs

Version: 1 Type: Tab 0 ratings
1 star 2 stars 3 stars 4 stars 5 stars
comments

Prove It Tab

---------------------------------------------------------------------------------
                             PROVE IT -	Bad Religion
---------------------------------------------------------------------------------

Intro	 x3
------------:-----------|
------------:-----------|
--9-9-9-99--:-----------|
--9-9-9-99--:--<-<-<-<--|
--7-7-7-77--:--<-<-<-<--|
------------:-----------|

Verse
--------------------------------:---------------------------------:-->
--------------------------------:---------------------------------:-->
---------10-910-----------------:-7-7-7-7-7-7-7-71010101010101010-:-->
--7-7-7-710-910-7-7-7-710101010-:-7-7-7-7-7-7-7-71010101010101010-:-->
--7-7-7-7-8-7-8-7-7-7-710101010-:-5-5-5-5-5-5-5-5-8-8-8-8-8-8-8-8-:-->
--5-5-5-5-------5-5-5-5-8-8-8-8-:---------------------------------:-->
[ Tab from: http://www.guitartabs.cc/tabs/b/bad_religion/prove_it_tab.html ]
>------------------------------------------------------------------|
>------------------------------------------------------------------|
>-7-7-7-7-7-7-7-71010101010101010-9-9-9-9-9-9-9-9-9-9-9-9-9-9-9-9--|
>-7-7-7-7-7-7-7-71010101010101010-9-9-9-9-9-9-9-9-9-9-9-9-9-9-9-9--|
>-5-5-5-5-5-5-5-5-8-8-8-8-8-8-8-8-7-7-7-7-7-7-7-7-7-7-7-7-7-7-7-7--|
>------------------------------------------------------------------|

Chorus
---------------------:---------------------------------:-->
---------------------:---------------------------------:-->
-1010-1010-----------:-7-7-7-7-9-9-9-9-----------------:-->
-1010-1010-1010-1010-:-7-7-7-7-9-9-9-9-7-7-7-7-7-7-7-7-:-->
--8-8--8-8-1010-1010-:-5-5-5-5-7-7-7-7-7-7-7-7-7-7-7-7-:-->
------------8-8--8-8-:-----------------5-5-5-5-5-5-5-5-:-->

>----------------------------------|
>----------------------------------|
>-7-7-7-7-7-7-7-7-9-9-9-9-9-9-9-9--|
>-7-7-7-7-7-7-7-7-9-9-9-9-9-9-9-9--|
>-5-5-5-5-5-5-5-5-7-7-7-7-7-7-7-7--|
>----------------------------------|

Ending			    x3
----------------------------------:-----------------------------------------------|
----------------------------------:-----------------------------------------------|
------------------7-7-7-7-9-9-9-9-:-1010101010101010------------------------------|
--7-7-7-710101010-7-7-7-7-9-9-9-9-:-101010101010101010101010-5-5-5-5-77-77-77-77--|
--7-7-7-710101010-5-5-5-5-7-7-7-7-:--8-8-8-8-8-8-8-810101010-5-5-5-5-77-77-77-77--|
--5-5-5-5-8-8-8-8-----------------:------------------8-8-8-8-3-3-3-3-55-55-55-55--|

saggy_colon@hotmail.com

-------------------------------------------------------------------------------
Comments