Bad Religion - Pity The Dead Chords & Tabs

 

Pity The Dead Chords & Tabs

Bad Religion Chords & Tabs

Version: 1 Type: Tab 0 ratings
1 star 2 stars 3 stars 4 stars 5 stars
comments

Pity The Dead Tab

Band: Bad Religión  
Song:Pity The Dead
Album: The Gray Race

Note: Escuchar la cancion para obtener el tiempo corecto. Listen to the song for the right time.


Intro
|---------------------------------------------------------------|
|---------------------------------------------------------------|
|-9--7-7------------9-9--7-7------------4-4-4-4-4-4-4-4-4-4-4-4-|
|-9--7-7--5-5--7-7--9-9--7-7--5-5--7-7--4-4-4-4-4-4-4-4-4-4-4-4-|
|-7--5-5--5-5--7-7--7-7--5-5--5-5--5-5--2-2-2-2-2-2-2-2-2-2-2-2-|
|---------3-3--5-5------------3-3--5-5--------------------------|


Verso
|-----------------------------------------------------|
|-----------------------------------------------------|
|-9--7-7------------9-9--7-7-------4-4--9-9--7-7------|
|-9--7-7--5-5--7-7--9-9--7-7--7-7--4-4--9-9--7-7--5-5-|
|-7--5-5--5-5--7-7--7-7--5-5--7-7--2-2--7-7--5-5--5-5-|
|---------3-3--5-5------------5-5-----------------3-3-|

|----------------------------------------------|
|----------------------------------------------|
|-5-5-5-5-5-5-5-5-5-5--7-7-7-7-7-7-7-7-7-7-7-7-|
|-5-5-5-5-5-5-5-5-5-5--7-7-7-7-7-7-7-7-7-7-7-7-|
|-3-3-3-3-3-3-3-3-3-3--5-5-5-5-5-5-5-5-5-5-5-5-|
|----------------------------------------------|


Pre-Coro
|----------------------------------|
|----------------------------------|
|-9--7-7---------------------------|
|-9--7-7--7-7-7-7-7-7-7-7-7-7-7-7--|
|-7--5-5--7-7-7-7-7-7-7-7-7-7-7-7--|
|---------5-5-5-5-5-5-5-5-5-5-5-5--|


Coro 1
|---------------------------------|---------------------------------|
|---------------------------------|---------------------------------|
|-4/9-9-9-9--5-5-5-5-5--7-7-7-7-7-|-4/9-9-9-9--5-5-5-5-5------------|
|-4/9-9-9-9--5-5-5-5-5--7-7-7-7-7-|-4/9-9-9-9--5-5-5-5-5--7-7-7-7-7-|
|-2/7-7-7-7--3-3-3-3-3--5-5-5-5-5-|-2/7-7-7-7--3-3-3-3-3--7-7-7-7-7-|
|---------------------------------|-----------------------5-5-5-5-5-|

|------------------------------------------------------------------------|
|------------------------------------------------------------------------|
|-9-9-9-9--5-5-5-5-----------7-7-7-7---9-9-9-9-----------7-7-7-7-7-7-7-7-|
|-9-9-9-9--5-5-5-5--5-5-5-5--7-7-7-7---9-9-9-9--5-5-5-5--7-7-7-7-7-7-7-7-|
|-7-7-7-7--3-3-3-3--5-5-5-5--5-5-5-5---7-7-7-7--5-5-5-5--5-5-5-5-5-5-5-5-|
|-------------------3-3-3-3---------------------3-3-3-3------------------|


Coro 2
|---------------------------------|---------------------------------|
|---------------------------------|---------------------------------|
|-4/9-9-9-9--5-5-5-5-5--7-7-7-7-7-|-4/9-9-9-9--5-5-5-5-5------------|
|-4/9-9-9-9--5-5-5-5-5--7-7-7-7-7-|-4/9-9-9-9--5-5-5-5-5--7-7-7-7-7-|
|-2/7-7-7-7--3-3-3-3-3--5-5-5-5-5-|-2/7-7-7-7--3-3-3-3-3--7-7-7-7-7-|
|---------------------------------|-----------------------5-5-5-5-5-|

|----------------------------------------------------------------|
|----------------------------------------------------------------|
|-9-9-9-9--5-5-5-5-----------7-7-7-7---9-9-9-9-----------7-7-7-7-|
|-9-9-9-9--5-5-5-5--5-5-5-5--7-7-7-7---9-9-9-9--5-5-5-5--7-7-7-7-|
|-7-7-7-7--3-3-3-3--5-5-5-5--5-5-5-5---7-7-7-7--5-5-5-5--5-5-5-5-|
|-------------------3-3-3-3---------------------3-3-3-3----------|

|-------------------------------------------------|
|-------------------------------------------------|
|-5-5-5--7-7-7-7-7-7-7-7-7-7--9-9-9-9-9-9-9-9-9-9-|
|-5-5-5--7-7-7-7-7-7-7-7-7-7--9-9-9-9-9-9-9-9-9-9-|
|-3-3-3--5-5-5-5-5-5-5-5-5-5--7-7-7-7-7-7-7-7-7-7-|
|-------------------------------------------------|


Coro 3
|---------------------------------|---------------------------------|
|---------------------------------|---------------------------------|
|-4/9-9-9-9--5-5-5-5-5--7-7-7-7-7-|-4/9-9-9-9--5-5-5-5-5------------|
|-4/9-9-9-9--5-5-5-5-5--7-7-7-7-7-|-4/9-9-9-9--5-5-5-5-5--7-7-7-7-7-|
|-2/7-7-7-7--3-3-3-3-3--5-5-5-5-5-|-2/7-7-7-7--3-3-3-3-3--7-7-7-7-7-|
|---------------------------------|-----------------------5-5-5-5-5-|
[ Tab from: http://www.guitartabs.cc/tabs/b/bad_religion/pity_the_dead_tab.html ]
|----------------------------------------------------------------|
|----------------------------------------------------------------|
|-9-9-9-9--5-5-5-5-----------7-7-7-7---9-9-9-9-----------7-7-7-7-|
|-9-9-9-9--5-5-5-5--5-5-5-5--7-7-7-7---9-9-9-9--5-5-5-5--7-7-7-7-|
|-7-7-7-7--3-3-3-3--5-5-5-5--5-5-5-5---7-7-7-7--5-5-5-5--5-5-5-5-|
|-------------------3-3-3-3---------------------3-3-3-3----------|

|------------------------------------------------------------|
|------------------------------------------------------------|
|-7-7-7-7-7-7-7--9-9-9-9-9-9-9--7-7-7-7-7-7-7--9-9-9-9-9-9-9-|
|-7-7-7-7-7-7-7--9-9-9-9-9-9-9--7-7-7-7-7-7-7--9-9-9-9-9-9-9-|
|-5-5-5-5-5-5-5--7-7-7-7-7-7-7--5-5-5-5-5-5-5--7-7-7-7-7-7-7-|
|------------------------------------------------------------|

|------------------------------|
|------------------------------|
|-7-7-7-7-7-7-7--9-9-9-9-9-9-9-|
|-7-7-7-7-7-7-7--9-9-9-9-9-9-9-|
|-5-5-5-5-5-5-5--7-7-7-7-7-7-7-|
|------------------------------|


Puente 1 
|--------------------------------------|
|--------------------------------------|
|-9--7-7------------9-9--7-7-------4-4-|
|-9--7-7--5-5--7-7--9-9--7-7--7-7--4-4-|
|-7--5-5--5-5--7-7--7-7--5-5--7-7--2-2-|
|---------3-3--5-5------------5-5------|


Puente 2                                      |---------P.M.----------
|----------------------------------------------------------------------|
|----------------------------------------------------------------------|
|-5-5--7-7--9-9-9-9-9--5-5--7-7--9-9-9-9-9-9---------------7-7-7-7-7-7-|
|-5-5--7-7--9-9-9-9-9--5-5--7-7--9-9-9-9-9-9--5-5-5-5-5-5--7-7-7-7-7-7-|
|-3-3--5-5--7-7-7-7-7--3-3--5-5--7-7-7-7-7-7--5-5-5-5-5-5--5-5-5-5-5-5-|
|---------------------------------------------3-3-3-3-3-3--------------|

 ---P.M.--|
|----------------------------------------------------------------|
|----------------------------------------------------------------|
|-5-5--7-7--9-9-9-9-9-9---9-9--9-9--9-9--9-9--9-9--9-9--9-9--7-7-|
|-5-5--7-7--9-9-9-9-9-9---9-9--9-9--9-9--9-9--9-9--9-9--9-9--7-7-|
|-3-3--5-5--7-7-7-7-7-7---7-7--7-7--7-7--7-7--7-7--7-7--7-7--5-5-|
|----------------------------------------------------------------|

|-------------------------------------------------------------|
|-------------------------------------------------------------|
|-9-9--9-9--9-9--9-9--9-9--9-9--9-9--7-7---9-9--5-5-------7-7-|
|-9-9--9-9--9-9--9-9--9-9--9-9--9-9--7-7---9-9--5-5--5-5--7-7-|
|-7-7--7-7--7-7--7-7--7-7--7-7--7-7--5-5---7-7--3-3--5-5--5-5-|
|----------------------------------------------------3-3------|
                   
                          |---------------P.M.---------------
|------------------------------------------------------------|
|------------------------------------------------------------|
|-5-5--7-7--5-5-5-5-5-5---5-5-5-5-5-5--7-7-7-7-7-7--5-5--7-7-|
|-5-5--7-7--5-5-5-5-5-5---5-5-5-5-5-5--7-7-7-7-7-7--5-5--7-7-|
|-3-3--5-5--3-3-3-3-3-3---3-3-3-3-3-3--5-5-5-5-5-5--3-3--5-5-|
|------------------------------------------------------------|

 -------------P.M.-------------|
|-------------------------------|
|-------------------------------|
|-9-9-9-9-9-9-9-9-9-9-9-9-9-9-9-|
|-9-9-9-9-9-9-9-9-9-9-9-9-9-9-9-|
|-7-7-7-7-7-7-7-7-7-7-7-7-7-7-7-|
|-------------------------------|


Solo
|-----------------------------------14-14--17^--14-14-14----14---------|
|---13-12----13-12-----13-12----15-----------------------12------12/10-|
|---------14--------14-------16----------------------------------------|
|----------------------------------------------------------------------|
|----------------------------------------------------------------------|
|----------------------------------------------------------------------|

|---------------------------------------------------------|
|-10/8-8/7-7/5-5/7-7/8-8-10-12-15-15^^-10-12-10-----------|
|------------------------------------------------12-11~---|
|---------------------------------------------------------|
|---------------------------------------------------------|
|---------------------------------------------------------|


Outro

 |--------x3-------|  
|------------------------------------------------------|
|------------------------------------------------------|
|-9-9--7-7-------------------------------------4~~~~~~-|
|-9-9--7-7--5-5--7-7--7-7-7-7-7-7-7-7-7-7-7-7--4~~~~~~-|
|-7-7--5-5--5-5--7-7--7-7-7-7-7-7-7-7-7-7-7-7--2~~~~~~-|
|-----------3-3--5-5--5-5-5-5-5-5-5-5-5-5-5-5----------|



Orden de la Cancion (Song order) :
Intro
Verso
Pre-Coro
Coro 1
Puente 1
Verso
Coro 2
Puente 2
Solo
Verso
Pre-Coro
Coro 3
Outro

Saludos a la generacion 2001-2004 del CBTis 246 en especial a Angelica.
Comments