Bad Religion - Part Ii The Numbers Game Chords & Tabs

 

Part Ii The Numbers Game Chords & Tabs

Bad Religion Chords & Tabs

Version: 1 Type: Tab 0 ratings
1 star 2 stars 3 stars 4 stars 5 stars
comments

Part Ii The Numbers Game Tab

This is a very short song of suffer and as of yet I dont think anyone
has tabbed this on the internet yet.

Intro
--------------------------------------------------------------
--------------------------------------------------------------
---9-9-9-9-9-9-9-9-9-9-9-----12--7----------------------------
---9-9-9-9-9-9-9-9-9-9-9-----12--7----------------------------
---7-7-7-7-7-7-7-7-7-7-7--sl-10--5----------------------------
--------------------------------------------------------------
[ Tab from: http://www.guitartabs.cc/tabs/b/bad_religion/part_ii_the_numbers_game_tab.html ]
Bit after intro, Repeat this bit about 4 or 5 times
--------------------------------------------------------------
--------------------------------------------------------------
-9------5-----7-----------9------7----------------------------
-9-x12--5-x4--7-x4--Then--9-x3---7-x1-(X4)--------------------
-7------3-----5-----------7------5----------------------------
--------------------------------------------------------------

Chorus
--------------------------------------------------------------
--------------------------------------------------------------
-9-----5----------7-----------------9-----5-------------------
-9-x6--5-x6-5-----7-x6-----ENDS ON--9-X6--5-X6----------------
-7-----3----5-x5--5-----------------7-----3-------------------
------------3-------------------------------------------------
Comments