Bad Religion - Materialist Chords & Tabs

 

Materialist Chords & Tabs

Bad Religion Chords & Tabs

Version: 2 Type: Tab 0 ratings
1 star 2 stars 3 stars 4 stars 5 stars
comments

Materialist Tab

   
-------------------------------------------------------------------------------
			 MATERIALIST - Bad Religion
-------------------------------------------------------------------------------

Tabbed by: danc446
Email: danc446@yahoo.com

Tuning: Standard

INTRO
e|-------------------------------------------------------------|
B|-------------------------------------------------------------|
G|-----------------9-----------------9----------------9--------|
D|--9-9-9/10\9-9-9-9--9-9-9/10\9-9-9-9-9-9-9/10\9-9-9-9-9-9-9--|
A|--9-9-9/10\9-9-9-7--9-9-9/10\9-9-9-7-9-9-9/10\9-9-9-7-9-9-9--|
E|--7-7-7/-8\7-7-7----7-7-7/-8\7-7-7---7-7-7/-8\7-7-7---7-7-7--|

VERSE
e|---------------------------------------------------------------------------|
B|---------------------------------------------------------------------------|
G|--7-7-7-7---------9-9-9-9-------------------------7-7-7-7-7-7-7-7----------|
D|--7-7-7-7-7-7-7-7-9-9-9-9-4-4-4-4-5-5-5-5-5-5-5-5-7-7-7-7-7-7-7-7-5-5-5-5--|
A|--5-5-5-5-7-7-7-7-7-7-7-7-4-4-4-4-5-5-5-5-5-5-5-5-5-5-5-5-5-5-5-5-5-5-5-5--|
E|----------5-5-5-5---------2-2-2-2-3-3-3-3-3-3-3-3-----------------3-3-3-3--|

e|----------------------------------------------------|
B|----------------------------------------------------|
G|--7-7-7-7-------------------------------------------|
D|--7-7-7-7-7-7-7-7:---9-9-9---9-9-9---9-9-9---9-9-9--|
A|--5-5-5-5-7-7-7-7:---9-9-9---9-9-9---9-9-9---9-9-9--|
E|----------5-5-5-5:---7-7-7---7-7-7---7-7-7---7-7-7--|

PRECHORUS   Guitar 1
e|-7-0-0-0--7-0-0-0--7-0-0-0--7-0-0-0--7-0-0-0--|
B|-0-0-0-0--0-0-0-0--0-0-0-0--0-0-0-0--0-0-0-0--|
G|-9-9-9-9--9-9-9-9--9-9-9-9--9-9-9-9--9-9-9-9--|
D|----------------------------------------------|
A|----------------------------------------------|
E|-0:-:-:---0:-:-:---0:-:-:---0:-:-:---0:-:-:---|

PRECHORUS Guitars 2,3
e|-----------------------------------------------|
B|-----------------------------------------------|
G|----------------------------------PLAY---------|
D|-9-9-9-9-5-5-5-5-7-7-7-7-7-7-7-7---3x---//14:--|
A|-9-9-9-9-5-5-5-5-7-7-7-7-7-7-7-7--THEN--//14:--|
E|-7-7-7-7-3-3-3-3-5-5-5-5-5-5-5-5--------//12:--|

CHORUS Guitar 1
e|-----------------------------------------------------------------------------|
B|---------------------------------------------------------------10h12~-15h14~-|
G|---------8h9p8------------------------------8h9~11--9p8h11p9h11--------------|
D|--9-9~/10-----9/10-9-9~-10\7h9p7/10--9-9~-10---------------------------------|
A|-----------------------------------------------------------------------------|
E|-----------------------------------------------------------------------------|
[ Tab from: http://www.guitartabs.cc/tabs/b/bad_religion/materialist_tab_ver_2.html ]
CHORUS Guitars 2,3
e|----------------------------------------------------------|
B|----------------------------------------------------------|
G|-----------------------------------------7-7-7-7----------|
D|--9-9-9/10\9-9-9-9/10\9-9-9-9/10\9-9-9-9-7-7-7-7-7-7-7-7--|
A|--9-9-9/10\9-9-9-9/10\9-9-9-9/10\9-9-9-9-5-5-5-5-7-7-7-7--|
E|--7-7-7/-8\7-7-7-7/-8\7-7-7-7/-8\7-7-7-7---------5-5-5-5--|

e|-------------------------------------|
B|-------------------------------------|
G|------------------7-7----------------|
D|--5-5-5-5-5-5-5-5-7-7-7-7-7-7-7-7-7--|
A|--5-5-5-5-5-5-5-5-5-5-7-7-7-7-7-7-7--|
E|--3-3-3-3-3-3-3-3-----5-5-5-5-5-5-5--|

VERSE 2
e|---------------------------------------------------------------------------|
B|---------------------------------------------------------------------------|
G|--7-7-7-7---------9-9-9-9-11111111-7-7-7-7---------9-9-9-9-----------------|
D|--7-7-7-7-7-7-7-7-9-9-9-9-11111111-7-7-7-7-7-7-7-7-9-9-9-9-9-9-9-9-5-5-5-5-|
A|--5-5-5-5-7-7-7-7-7-7-7-7--9-9-9-9-5-5-5-5-7-7-7-7-7-7-7-7-9-9-9-9-5-5-5-5-|
E|----------5-5-5-5--------------------------5-5-5-5---------7-7-7-7-3-3-3-3-|

e|---------------------------------------------------------------------|
B|---------------------------------------------------------------------|
G|----------7-7-7-7-7-7-7-7---------7-7-7-7----------------------------|
D|--5-5-5-5-7-7-7-7-7-7-7-7-5-5-5-5-7-7-7-7-7-7-7-7:--999-999-999-999--|
A|--5-5-5-5-5-5-5-5-5-5-5-5-5-5-5-5-5-5-5-5-7-7-7-7:--999-999-999-999--|
E|--3-3-3-3-----------------3-3-3-3---------5-5-5-5:--777-777-777-777--|

BRIDGE
e|----------------------------------------|
B|----------------------------------------|
G|--4-4-4-4-------------------------Play--|
D|--4-4-4-4-5-5-5-5-7-7-7-7-7-7-7-7--4x---|
A|--2-2-2-2-5-5-5-5-7-7-7-7-7-7-7-7-------|
E|----------3-3-3-3-5-5-5-5-5-5-5-5-------|
pm *********************************

OUTRO  Guitar 1
(Voila 1st phrase)
e|---^--^--^-----|-----------------------|Repeat|----------------------------|
B|---------------|-----------------------|1st---|----------------------------|
G|----------8h9p8|-----------------------|phrase|----------8h11p9h11r9\8~~---|
D|--9-9~-10------|9/10--9-9~-10\7h9p7/10-|-here-|--9-9~-10-------------------|
A|---------------|-----------------------|-then-|----------------------------|
E|---------------|-----------------------|------|----------------------------|

OUTRO   Guitars 2,3
e|----------------------------------------------------------------------|
B|----------------------------------------------------------------------|
G|-----------------------------------------7-7-7-7----------------------|
D|--9-9-9/10\9-9-9-9/10\9-9-9-9/10\9-9-9-9-7-7-7-7-7-7-7-7-9-9-9/10\9\\-|
A|--9-9-9/10\9-9-9-9/10\9-9-9-9/10\9-9-9-9-5-5-5-5-7-7-7-7-9-9-9/10\9\\-|
E|--7-7-7/-8\7-7-7-7/-8\7-7-7-7/-8\7-7-7-7---------5-5-5-5-7-7-7/-8\7\\-|


| /  slide up
| \  slide down
| h  hammer-on
| p  pull-off
| ~  vibrato
| +  harmonic
| x  Mute note
| :  Let ring
===============================================================================
Comments