Bad Religion - Leave Mine To Me Chords & Tabs

 

Leave Mine To Me Chords & Tabs

Bad Religion Chords & Tabs

Version: 1 Type: Bass Tab 0 ratings
1 star 2 stars 3 stars 4 stars 5 stars
comments

Leave Mine To Me Bass Tab

   
Bad Religion 
LEAVE MINE TO ME 
  
  
[X3] PLAY 3 TIMES 
  
[ Tab from: http://www.guitartabs.cc/tabs/b/bad_religion/leave_mine_to_me_btab.html ]
RIFF A 
                                                [X4]| 
G|---------------------------------------| 
D|---------------------------------------| 
A|-55--55-------------------8--7---------| 
E|--------------6-5-1-3-8-5-------------| 
  
  
   RIFFB 
                      [X3]| 
  G|------------------|------------------------------------| 
  D|------------------|------------------------------------| 
  A|-5--8-7---3-0-3|-- 1--1-1--1-1|--1--1-1--1-1-----------| 
  E|------------------|------------------|-----------------| 
  
G|-----------------|------------------|------------------| 
D|-----------------|------------------|------------------| 
A|-0000--0000---|--0000--3-4-----|-------------------------| 
E|-----------------|------------------|-----------------| 
    RIFFC 
G|-----------------|---------------|----------------------| 
D|-----------------|-------------- |---------------------| 
A|--5-5--5-5-5-5-|-3-3-3-3-3----|--1-1-1-1-1----------------| 
E|-----------------|---------------|---------------------| 
  
G: ------------------------------------------------------| 
D:-------------------------------------------------------| 
A:--3-3-3-3-3|--1-1-1-1-0|-------------------------------| 
E:----------------------------|--1--1-1-1-1--------------| 
  
                     |1.               |2. you can figure it out! 
G:-------------|------------|-----------------| 
D:-------------|------------|-----------------| 
A:-------------|-----2-3-4-|-----------------| 
E:--3-3-3-3-3|-5----------|-5-5-5-5--------| 
NOW PLAY RIFF B[X4]--RIFF C--RIFF A 
  
RIFF D 
G-----------------------------------------------------| 
D-----------------------------------------------------| 
A-5-5-5-5-5|-3---------|-5-5-5-5-5|--1----------------| 
E-----------------------------------------------------| 
  
G- ----------|------------|-----------|-------------------------| 
D------------|------------|-----------|------------------------| 
A-5-5-5-5-5-|--3--------|-1-1-1-1--|--3-3-3-3-------------| 
E-------------|-----------|-----------|------------------------| 
  
play RIFF B 
  
RIFF D 
G----------------------------------------------------------------------------------------------------------| 
D----------------------------------------------------------------------------------------------------------| 
A-5-5-5-5-5|-7-7-7-7-7-|-8-8-8-8-8|-7-7-7-7-7|-5-5-5-5-5|-3-3-3-3-3|-1-1-1-1-1|-3-3-3-3-3------------------| 
E----------------------------------------------------------------------------------------------------------| 
  
G-----------------------------------------------------------------------------------------------------| 
D-----------------------------------------------------------------------------------------------------| 
A-5-5-5-5-5|-7-7-7-7-7|--8-8-8-8-8|-10-10-10-10-10|-5-5-5-5-5|-3-3-3-3-3|-1-1-1-1|-3-3-3-3-3----------| 
E-----------------------------------------------------------------------------------------------------| 
  
now play RIFF A--RIFF B And finish on a|A|-5-| 

Comments