Bad Religion - Kyoto Now Chords & Tabs

 

Kyoto Now Chords & Tabs

Bad Religion Chords & Tabs

Version: 3 Type: Tab 0 ratings
1 star 2 stars 3 stars 4 stars 5 stars
comments

Kyoto Now Tab

------------------------------------------------------------------------------- 
                          KYOTO NOW - Bad Religion
------------------------------------------------------------------------------- 

By: Terry (BadReligion_Believer5@hotmail.com) 

Intro 
e|-------------------------------------------------------------| 
B|--3-3-3-3-6-6-6-6-10-10-10-11-10--8-8-8-8-4-4-4-4-1-1-3-4-3--| 
G|--2-2-2-2-5-5-5-5-9--9--9--10-9---7-7-7-7-3-3-3-3-0-0-2-3-2--| 
D|-------------------------------------------------------------| 
A|-------------------------------------------------------------| 
E|-------------------------------------------------------------| 

e|--2~~--|-----------------------| 
B|--3~~--|-----------1~~---------| 
G|--2~~--|-----------0~~---------| 
D|--0~~--|--7-7-7-7--2~~-2-2--7--| 
A|-------|--5-5-5-5--3~~-3-3--5--| 
E|-------|-----------------------| 

Verse 
e|--------------------------------------------------------| 
B|--------------------------------------------------------| 
G|--------------------------------------------------------| 
D|--------------------6-6-6-6-----------6-6-6-6--8-8-8-8--| 
A|--3-3-3-3--6-6-6-6--4-4-4-4--6-6-6-6--4-4-4-4--6-6-6-6--| 
E|--1-1-1-1--4-4-4-4-----------4-4-4-4--------------------| 

e|---------------------------------| 
B|---------------------------------| 
G|---------------------------------| 
D|--8/10-10-10-10--6-6-6-6--8-8-8--| 
A|--6/-8--8--8--8--4-4-4-4--6-6-6--| 
E|---------------------------------| 

Chorus 
e|--------------------------------------| 
B|--------------------------------------| 
G|--------------------------------------| 
D|-----------6-6-6-6-----------8-8-8-8--| 
A|--8-8-8-8--4-4-4-4--6-6-6-6--6-6-6-6--| 
E|--6-6-6-6-----------4-4-4-4-----------| 
[ Tab from: http://www.guitartabs.cc/tabs/b/bad_religion/kyoto_now_tab_ver_3.html ]
e|-----------------------------| 
B|-----------------------------| 
G|-----------------------------| 
D|--10-10-10/11\10--5-5-5/7\5--| 
A|---8--8--8/-9\-8--3-3-3/5\3--| 
E|-----------------------------| 

Bridge 
e|---------------------------------------------------| 
B|---------------------------------------------------| 
G|---------------------------------------------------| 
D|--7-7-7-7-7--10-10-10-10-10--5-5-5-5-5--7-7-7-7-7--| 
A|--5-5-5-5-5---8--8--8--8--8--3-3-3-3-3--5-5-5-5-5--| 
E|---------------------------------------------------| 

e|-----------------------| 
B|-----------------------| 
G|-----------------------| 
D|--7-7-7-7--5~~-5-5--7--| 
A|--5-5-5-5--3~~-3-3--5--| 
E|-----------------------| 

Pre-Solo 
e|-------------| 
B|-------------| 
G|-------------| 
D|-------------| 
A|--3/4/5/6/8--| 
E|--1/2/3/4/6--| 

Solo 
Guitar2 
e|--------------------------------------| 
B|--------------------------------------| 
G|--------------------------------------| 
D|-----------6-6-6-6-----------8-8-8-8--| 
A|--8-8-8-8--4-4-4-4--6-6-6-6--6-6-6-6--| 
E|--6-6-6-6-----------4-4-4-4-----------| 

e|------------------| 
B|------------------| 
G|------------------| 
D|--10/11/12/13/15--| 
A|---8/-9/10/11/13--| 
E|------------------| 

Outro 
e|--------------------------------------| 
B|--------------------------------------| 
G|--------------------------------------| 
D|-----------6-6-6-6-----------8-8-8-8--| 
A|--8-8-8-8--4-4-4-4--6-6-6-6--6-6-6-6--| 
E|--6-6-6-6-----------4-4-4-4-----------| 

e|------------------------------------------------------| 
B|------------------------------------------------------| 
G|------------------------------------------------------| 
D|--10-10-10-10-10\6-6-6-6-6-6/8-8-8-8-8-8--8-8---------| 
A|---8--8--8--8--8\4-4-4-4-4-4/6-6-6-6-6-6--6-6--8~~~~--| 
E|-----------------------------------------------6~~~~--| 

-------------------------------------------------------------------------------
Comments