Bad Religion - Kyoto Now Chords & Tabs

 

Kyoto Now Chords & Tabs

Bad Religion Chords & Tabs

Version: 1 Type: Tab 0 ratings
1 star 2 stars 3 stars 4 stars 5 stars
comments

Kyoto Now Tab

-------------------------------------------------------------------------------
			     Kyoto Now - Bad Religion
-------------------------------------------------------------------------------


Tabbed By Kevin Grant
kev_lucid@hotmail.com



4x
|------------------------------------------------------------|
|-3-3-3-3-6-6-6-6-10-10-10-11-10--8-8-8-8-4-4-4-4-1-1-3-4-3--|
|-2-2-2-2-5-5-5-5-9--9--9--10-9---7-7-7-7-3-3-3-3-0-0-2-3-2--|
|------------------------------------------------------------|
|------------------------------------------------------------|
|------------------------------------------------------------|

1x	 5x
|----||------------------|
|----||------------------|
|-7--||-7-7-7-10-5-5-5-7-|
|-7--||-7-7-7-10-5-5-5-7-|
|-5--||-5-5-5-8--3-3-3-5-|
|----||------------------|

4x                                 1x
|---------------------------------||------------------|
|---------------------------------||------------------|
|---------6-6-6-6-----6-6-8-8-8-8-||-10--6--8-8-8-8-8-|
|-3-3-6-6-6-6-6-6-6-6-6-6-8-8-8-8-||-10--6--8-8-8-8-8-|
|-3-3-6-6-4-4-4-4-6-6-4-4-6-6-6-6-||-8---4--6-6-6-6-6-|
|-1-1-4-4---------4-4-------------||------------------|

4x                                 1x
|---------------------------------||----------------------------|
|---------------------------------||----------------------------|
|---------6-6-6-6---------8-8-8-8-||-10-10-10-11-10--5-5-5-6-5--|
|-8-8-8-8-6-6-6-6-6-6-6-6-8-8-8-8-||-10-10-10-11-10--5-5-5-6-5--|
|-8-8-8-8-4-4-4-4-6-6-6-6-6-6-6-6-||-8--8--8--9--8---3-3-3-4-3--|
|-6-6-6-6---------4-4-4-4---------||----------------------------|
[ Tab from: http://www.guitartabs.cc/tabs/b/bad_religion/kyoto_now_tab.html ]
1x
|-------------------------------||-------------------------------------|
|-------------------------------||-------------------------------------|
|-7-7-7-7-10-10-10-10-5-5-5-5-7-||-7-7-7-7-10-10-10-10-5-5-5-5-7-7-7-7-|
|-7-7-7-7-10-10-10-10-5-5-5-5-7-||-7-7-7-7-10-10-10-10-5-5-5-5-7-7-7-7-|
|-5-5-5-5-8--8--8--8--3-3-3-3-5-||-5-5-5-5-8--8--8--8--3-3-3-3-5-5-5-5-|
|-------------------------------||-------------------------------------|

4x                                 1x
|---------------------------------||------------------|
|---------------------------------||------------------|
|---------6-6-6-6-----6-6-8-8-8-8-||-10--6--8-8-8-8-8-|
|-3-3-6-6-6-6-6-6-6-6-6-6-8-8-8-8-||-10--6--8-8-8-8-8-|
|-3-3-6-6-4-4-4-4-6-6-4-4-6-6-6-6-||-8---4--6-6-6-6-6-|
|-1-1-4-4---------4-4-------------||------------------|

8x
|---------------------------------|
|---------------------------------|
|---------6-6-6-6---------8-8-8-8-|
|-8-8-8-8-6-6-6-6-6-6-6-6-8-8-8-8-|
|-8-8-8-8-4-4-4-4-6-6-6-6-6-6-6-6-|
|-6-6-6-6---------4-4-4-4---------|

1x
|-------------------------------|
|-------------------------------|
|-------------------------------|
|-3-3-3--3-3-3-3--3-3--4--5--6--|
|-3-3-3--3-3-3-3--3-3--4--5--6--|
|-1-1-1--1-1-1-1--1-1--2--3--4--|

4x                                 1x
|---------------------------------||------------------------------------------|
|---------------------------------||------------------------------------------|
|-----------------6-6-6-6-8-8-8-8-||-10-10-10-10--10-10-10--10-10-8-8-6-6-5-5-|
|-8-8-8-8-6-6-6-6-6-6-6-6-8-8-8-8-||-10-10-10-10--10-10-10--10-10-8-8-6-6-5-5-|
|-8-8-8-8-6-6-6-6-4-4-4-4-6-6-6-6-||-8--8--8---8--8--8--8---8--8--6-6-4-4-3-3-|
|-6-6-6-6-4-4-4-4-----------------||------------------------------------------|

8x
|---------------------------------|
|---------------------------------|
|---------6-6-6-6---------8-8-8-8-|
|-8-8-8-8-6-6-6-6-6-6-6-6-8-8-8-8-|
|-8-8-8-8-4-4-4-4-6-6-6-6-6-6-6-6-|
|-6-6-6-6---------4-4-4-4---------|

1x
|-----------------------------------||
|-----------------------------------||
|-10--6--8-8-8--8-8-8-8--8-8-8-8----||
|-10--6--8-8-8--8-8-8-8--8-8-8-8--8-||
|-8---4--6-6-6--6-6-6-6--6-6-6-6--8-||
|---------------------------------6-||
Comments