Bad Religion - Its A Long Way To The Promised Land Chords & Tabs

 

Its A Long Way To The Promised Land Chords & Tabs

Bad Religion Chords & Tabs

Version: 2 Type: Chords 0 ratings
1 star 2 stars 3 stars 4 stars 5 stars
comments

Its A Long Way To The Promised Land Chords

   
------------------------------------------------------------------------------- 
              IT'S A LONG WAY TO THE PROMISED LAND - Bad Religion
------------------------------------------------------------------------------- 

Tabbed out by: Albert Ng, albertng168@hotmail.com 

E D# B A D 
|------------------------------------------| 
|------------------------------------------| 
|----9-------8-----------------------7-----| 
|----9-------8-------9-------7-------7-----| 
|----7-------6-------9-------7-------5-----| 
|--------------------7-------5-------------| 

Intro: E D# (x2) (no distortion) 

VERSE 1: 
E D# E D# 
It's a long way to the promise land so you'd better well know your way 

E D# E D# 
There's a ship on the ocean and an albatross who is trying to lead you astray 

E B (distortion) A B A B 
Leaders, politicians, and power whores are in line to receive your choice 
[ Tab from: http://www.guitartabs.cc/tabs/b/bad_religion/its_a_long_way_to_the_promised_land_crd_ver_2.html ]
A B A E B E B 
And you bet your ass, if you give it to them, they will gladly take your voice 

A B A E B (x2) 
And it's a long way to the promise land Wo-oh Oh oh oh 


VERSE 2: repeat as for verse 1 


BRIDGE (w/ distortion) 

D E B D E B 
What are you going to do? When they call for you? 

D E B D E B E B 
Bend and capitulate? Or keep your head on straight? 


VERSE 3: (w/ distortion) 
A B A B 
Easy answers bought without experience, is gonna lead you to certain doom 
A B A E B 
E B 
Because the truth is just what you make of it, it begins and ends with you! 
A B A E B (x4) 
And it's a long way to the promise land Wo-oh Oh oh oh 
B 
Get in line 

-------------------------------------------------------------------------------
Comments