Bad Religion - Inner Logic Chords & Tabs

 

Inner Logic Chords & Tabs

Bad Religion Chords & Tabs

Version: 2 Type: Bass Tab 0 ratings
1 star 2 stars 3 stars 4 stars 5 stars
comments

Inner Logic Bass Tab

Bad Religion 
Inner Logic 
Transcription by Dave Tagg, spedhead@ix.netcom.com. 

Verse 1: 
G|--------------------------| 
D|--------------------------| 
A|--5-5-5-------3-3-3-5-5-5-| 
E|--------6-6-6-------------| 

Pre Chorus: 
G|--------------------------| 
D|--------------------------| 
A|--5-5-5-------4-4-4-3-3-3-| 
E|--------6-6-6-------------| 
[ Tab from: http://www.guitartabs.cc/tabs/b/bad_religion/inner_logic_btab_ver_2.html ]
Chorus: 
G|-----------------------|-----| 
D|-----------------------|-----| 
A|--5-5-5-------------3-|-----| 
E|--------6-6-6-1-1-3---|--5--| 

Verse 2: 
G|--------------------------------| 
D|------5-7---------------3-5-----| 
A|--5-5----------6-8--3-3-----5-5-| 
E|-----------6-6------------------| 

Play this during solo: 
G|--------------------------| 
D|--------------------------| 
A|--5-5-5-------3-3-3-5-5-5-| 
E|--------6-6-6-------------| 
Comments