Bad Religion - Infected Chords & Tabs

 

Infected Chords & Tabs

Bad Religion Chords & Tabs

Version: 3 Type: Tab 0 ratings
1 star 2 stars 3 stars 4 stars 5 stars
comments

Infected Tab

   
Bad Religion- Infected

Tuning-Drop D

This is one of the best songs on "Stranger than Fiction". 
I dont put how many times to play each chord and how many times to play each
riff, but you can figure that out with great ease. Also, for the end, at around
3:13 on the album's song, they just play riff 1 for the rest of the song, except
a whole note higher.

Riff 1
------------------------------------
------------------------------------
---------3---5---------3---5--------
-5---1---3-0-5-5---1---3-0-5---3----
-5---1-0-1---3-5---1-0-1---3-0-3----
-5-0-1---------5-0-1---------0-3----
[ Tab from: http://www.guitartabs.cc/tabs/b/bad_religion/infected_tab_ver_3.html ]
Solo for Riff 1
-/3--3-1-3--------------------------
-/3--3-1-3----/15-------------------
--------------/16-------------------
------------------------------------
------------------------------------
------------------------------------

Riff 2
------------------------------------
------------------------------------
------------------------------------
-5-6b-5-5-6-8-6---------------------
-5-6b-5-5-6-8-6---------------------
-5-6b-5-5-6-8-6---------------------

Solo for Riff 2
------------------------------------
-----3-4-3--------------------------
-0-3--------------------------------
------------------------------------
------------------------------------
------------------------------------

Riff 3
------------------------------------
------------------------------------
------------------------------------
-5-6--------------------------------
-5-6--------------------------------
-5-6--------------------------------

HAVE FUN
Comments