Bad Religion - Infected Chords & Tabs

 

Infected Chords & Tabs

Bad Religion Chords & Tabs

Version: 2 Type: Tab 0 ratings
1 star 2 stars 3 stars 4 stars 5 stars
comments

Infected Tab

   
Hey, here's the guitar tab for "Infected" by Bad Religion
It's played with two guitars tuned down half a step ( the entire
"Stranger than Fiction" album is tuned to Eb )
Low to high : Eb Ab Db Gb Bb Eb

Opening ( lead ):
E------------------
B------------------
G--/12~-------------
D---xx--------------
A--/10~-------------
E------------------

Intro ( lead ):
E-------------------------------------------------------------------
B-------------------------------------------------------------------
G--12--16-14-15-12--16-14-15-13-13-13-13-13-13--13-13-13-13-13-13---
D--xx--xx-xx-xx-xx--xx-xx-xx-xx-xx-xx-xx-xx-xx--xx-xx-xx-xx-xx-xx---
A--10--14-12-13-10--14-12-13-11-11-11-11-11-11--11-11-11-11-11-11---
E-------------------------------------------------------------------
play the rhythm on the xx11x13x chord, go straight into verse

Intro 2X ( rhythm guitar ):
E--------------------------------------------------------------------
B--------------------------------------------------------------------
G----------------4-5-5-5-6-7-7-7-5---------------4-5-5-5-6-7-7-7-5---
D--7-7-7-2-3-3-3-4-5-5-5-6-7-7-7-5-7-7-7-2-3-3-3-4-5-5-5-6-7-7-7-5---
A--7-7-7-2-3-3-3-2-3-3-3-4-5-5-5-3-7-7-7-2-3-3-3-2-3-3-3-4-5-5-5-3---
E--5-5-5-0-1-1-1-------------------5-5-5-0-1-1-1---------------------
PM . . . . . . . . . . . . . . . . . . . . . . . . . . . . . . . .

E------------------------------------------------------------------
B------------------------------------------------------------------
G----------------4-5-5-5-6-7-7-7-5---------------4-5-5-5-4---------
D--7-7-7-2-3-3-3-4-5-5-5-6-7-7-7-5-7-7-7-2-3-3-3-4-5-5-5-4-5-5-5---
A--7-7-7-2-3-3-3-2-3-3-3-4-5-5-5-3-7-7-7-2-3-3-3-2-3-3-3-2-5-5-5---
E--5-5-5-0-1-1-1-------------------5-5-5-0-1-1-1-----------3-3-3---
PM . . . . . . . . . . . . . . . . . . . . . . .

Verse ( both guitars ):
E-------------------------------------------------------------------
B-------------------------------------------------------------------
G----------------4-5-5-5-6-7-7-7-5---------------4-5-5-5-6-7-7-7-5--
D--7-7-7-2-3-3-3-4-5-5-5-6-7-7-7-5-7-7-7-2-3-3-3-4-5-5-5-6-7-7-7-5--
A--7-7-7-2-3-3-3-2-3-3-3-4-5-5-5-3-7-7-7-2-3-3-3-2-3-3-3-4-5-5-5-3--
E--5-5-5-0-1-1-1-------------------5-5-5-0-1-1-1--------------------
[ Tab from: http://www.guitartabs.cc/tabs/b/bad_religion/infected_tab_ver_2.html ]
E------------------------------------------------------------------
B------------------------------------------------------------------
G----------------4-5-5-5-6-7-7-7-5---------------4-5-5-5-4---------
D--7-7-7-2-3-3-3-4-5-5-5-6-7-7-7-5-7-7-7-2-3-3-3-4-5-5-5-4-5-5-5---
A--7-7-7-2-3-3-3-2-3-3-3-4-5-5-5-3-7-7-7-2-3-3-3-2-3-3-3-2-5-5-5---
E--5-5-5-0-1-1-1-------------------5-5-5-0-1-1-1-----------3-3-3---

Pre-chorus:
E----------------------------------1-1-1-0-------1-1-1-0-------------
B----------------------------------1-1-1-0-------1-1-1-0-------------
G--------------------------2-2-2-0---------2-2-0---------------------
D--/-7-7-7-8-8--3-3-3-5-5--2-2-2-0---------2-2-0-----------7-7-7-8-8-
A--/-7-7-7-8-8--3-3-3-5-5----------------------------------7-7-7-8-8-
E--/-5-5-5-6-6--1-1-1-3-3----------------------------------5-5-5-6-6-

E----------------------------
B----------------------------
G----------------------------
D--3-3-3-4-4--4-4--4-4-4-----
A--3-3-3-4-4--4-4--4-4-4-----
E--1-1-1-2-2--2-2--2-2-2-----
PM                 . . .

Chorus 2X:
E----------------------------------------------------------------
B----------------------------------------------------------------
G----------------5-5-5-------------------------------------------
D--7-7-7--3-3-3--5-5-5--5-5-5--7-7-7-8-8--3-3-3-5-5--------------
A--7-7-7--3-3-3--3-3-3--5-5-5--7-7-7-8-8--3-3-3-5-5--------------
E--5-5-5--1-1-1---------3-3-3--5-5-5-6-6--1-1-1-3-3--------------

End chorus:
E-------------------------------
B-------------------------------
G-------------------------------
D--7-7-7-7-7-7-7--7-7-7-7-7-7---
A--7-7-7-7-7-7-7--7-7-7-7-7-7---
E--5-5-5-5-5-5-5--5-5-5-5-5-5---

Bridge:
E--------------------------------------------------------------------
B--------------------------------------------------------------------
G--------------------------------------------------------------------
D--------------------------------------------------------------------
A--2-2-0-----0-2-2-2-0-----0--2-2-0-----0-2-2-2-2-2-2-0--------------
E--------2-2-----------2-2----------2-2------------------2-2-0-3-2---

E-------------------------------------------------------------------
B-------------------------------------------------------------------
G-------------------------------------------------------------------
D-------------5-5-5-5-5-5-5--7-7-7-7-7-7-7-7------------------------
A-------------5-5-5-5-5-5-5--7-7-7-7-7-7-7-7------------------------
E--2-2-0-3-2--3-3-3-3-3-3-3--5-5-5-5-5-5-5-5------------------------

Solo ( rhythm guitar )/ Outro ( both guitars ):
E----------------------------
B----------------------------
G--4-4-5-5-------------------
D--4-4-5-5-5-5-7-7-----------   End on --9~-----
A--2-2-3-3-5-5-7-7-----------          --9~-----
E----------3-3-5-5-----------          --7~-----

Solo ( lead guitar ):
Improvise on the eBG strings between the 12th & 15th frets

That's it, during the "yeah, yeah, yeah" part they play G-12-- on repeat
but they only do that live, on the album it's just the bass part.
For comments, e-mail me arno.bogaerts@pandora.be
Comments