Bad Religion - I Love My Computer Chords & Tabs

 

I Love My Computer Chords & Tabs

Bad Religion Chords & Tabs

Version: 2 Type: Tab 0 ratings
1 star 2 stars 3 stars 4 stars 5 stars
comments

I Love My Computer Tab

------------------------------------------------------------------------------- 
                       I LOVE MY COMPUTER - Bad Religion
------------------------------------------------------------------------------- 

email : star_sandra@hotmail.com 

Intro : 
|-----------------------------------| 
|-----------------------------------| 
|--9-9-9---7-7-7--------------------| x4 
|--9-9-9---7-7-7----7-7-7---9-9-9---| 
|--7-7-7---5-5-5----7-7-7---9-9-9---| 
|-------------------5-5-5---7-7-7---| 

verse : I love my computer... 
|----------------------------------| 
|----------------------------------| 
|--9-9-9-----------5-5-5---7-7-7---| 
|--9-9-9---9-9-9---5-5-5---7-7-7---| x4 
|--7-7-7---9-9-9---3-3-3---5-5-5---| 
|----------7-7-7-------------------| 

And itís never been quite so easy... 
|------------------------------------------| 
|------------------------------------------| 
|--5-5-5--------------5-5-5----------------| 
|--5-5-5ó----9-9------5-5-5---9-9-9-9-9-9--| 
|--3-3-3ó----9-9------3-3-3---9-9-9-9-9-9--| 
|------------7-7--------------7-7-7-7-7-7--| 
[ Tab from: http://www.guitartabs.cc/tabs/b/bad_religion/i_love_my_computer_tab_ver_2.html ]
chorus : 
|-----------------------------------------------------------| 
|-----------------------------------------------------------| 
|--9-9-9--7-7-7--5-5-5-5-5-5-5---------------7-7-7-7-7-7----| 
|--9-9-9--7-7-7--5-5-5-5-5-5-5--5-5-5-5-5-5ó-7-7-7-7-7-7----| 
|--7-7-7--5-5-5--3-3-3-3-3-3-3--5-5-5-5-5-5ó-5-5-5-5-5-5----| 
|-------------------------------3-3-3-3-3-3-----------------| 

|----------------------------------------------------------| 
|----------------------------------------------------------| 
|--9-9-9--7-7-7--5-5-5-5-5-5----------------------7-7-7----| 
|--9-9-9--7-7-7--5-5-5-5-5-5--5-5-5-5-5-5--7-7-7--7-7-7----| 
|--7-7-7--5-5-5--3-3-3-3-3-3--5-5-5-5-5-5--7-7-7--5-5-5----| 
|-----------------------------3-3-3-3-3-3--5-5-5-----------| 
play intro x2 

play verse 

play chorus 

play intro x2 

bridge : (Iím not too sure about this part) 
|----------------------------------------------------------| 
|----------------------------------------------------------| 
|-9-9-9-9-9-9--7-7-7-7-7-7--5-5-5-5-5-5--------------------| 
|-9-9-9-9-9-9--7-7-7-7-7-7--5-5-5-5-5-5--9-9-9-9-9-9-9-9---| 
|-7-7-7-7-7-7--5-5-5-5-5-5--3-3-3-3-3-3--9-9-9-9-9-9-9-9---| 
|----------------------------------------7-7-7-7-7-7-7-7---| 

solo (I DONíT KNOW IT) 

play chorus x2 

play intro until end 

I DONíT KNOW THE SOLO, SORRY . LISTEN TO THE SONG FOR THE STRUMMING. 

-------------------------------------------------------------------------------
Comments