Bad Religion - I Love My Computer Chords & Tabs

 

I Love My Computer Chords & Tabs

Bad Religion Chords & Tabs

Version: 1 Type: Tab 0 ratings
1 star 2 stars 3 stars 4 stars 5 stars
comments

I Love My Computer Tab

   
|------------------|
|I LOVE MY COMPUTER|
|------------------|


Tabbed out by Christopher L. Exner (cexner@pclink.com)


 Send any questions, corrections, etc. to: cexner@pclink.com

  INTRO
   E    D    A    B
e|----------------------PALM MUTE THE FIRST
B|----------------------2 CHORDS OF EACH
G|----------------------SET OF 4
D|-9999-7777-2222-4444--
A|-7777-5555-0000-2222--
E|----------------------

   VERSE (Listen for palm-muted measures) REFRAIN
    E    B    C    D                       C        B     C        B
e|----------------------                  ----------------------------------
B|----------------------                  ----------------------------------
G|----------------------                  ----------------------------------
D|--9999-4444-5555-7777-                  -55555555-444---55555555-44444444-
A|--7777-2222-3333-5555-                  -33333333-222---33333333-22222222-
E|----------------------                  ----------------------------------

  CHORUS
   E    D    C        G          D(FIRST TIME) THEN  A    D
e|----------------------------  -------------       ------------
B|----------------------------  -------------       ------------
G|----------------------------  -------------       ------------
D|-9999-7777-55555555---------  -77777777----       -------77-7-
A|-7777-5555-33333333-55555555  -55555555----       --77-7-55-5-
E|--------------------33333333  -------------       --55-5------
[ Tab from: http://www.guitartabs.cc/tabs/b/bad_religion/i_love_my_computer_tab.html ]
   SECTION BEFORE SOLO
   C B              D C#                              B
e|-------------------------------------------------------------------
B|-------------------------------------------------------------------
G|-------------------------------------------------------------------
D|-5\4-5\4-5\4-5\4--7\6-7\6-7\6-7\6--5\4-5\4-5\4-5\4--44444444-------
A|-3\2-3\2-3\2-3\2--5\4-5\4-5\4-5\4--3\2-3\2-3\2-3\2--22222222-------
E|-------------------------------------------------------------------


  SOLO
e|--7h8-7h8-7h8-------------------------------------------7------------------------
B|--------------10b(12)r10p7----------------------10b(12)--10b(12)r10p7------------
G|---------------------------/9~-9\7-7~--12-11-9\7------------------------9b(11)r9-
D|---------------------------------------------------------------------------------
A|---------------------------------------------------------------------------------
E|---------------------------------------------------------------------------------

e|---------7------------------------------------------------------------------------
B|-10b(12)---10b(12)-7-10~~-10~--12-------------------------------------------------
G|-------------------------------12b(14)-11----9-11-12~-----------------------------
D|------------------------------------------12---------12h14-10h12-9h10-7h9p7\5-5h7-
A|----------------------------------------------------------------------------------
E|----------------------------------------------------------------------------------

e|-----------------------------------------------
B|-----------------------------------------------
G|-----------------------------------------12~~~-
D|----------7---7-9-9/11-11/12-12/14-14/15-15~~~-
A|--/9~-7-9---9----------------------------------
E|-----------------------------------------------

 SOLO GUITAR IS PLAYED SLIGHTLY OUT OF TUNE AND SOMETIMES DOUBLED 

e|---------------------------------------------------------------------------|
B|---------------------------------------------------------------------------|
G|---------------------------------------------------------------------------|
D|---------------------------------------------------------------------------|
A|---------------------------------------------------------------------------|
E|---------------------------------------------------------------------------| 

 Anyone in the Twin Cities area wanna jam? E-mail me.
Comments