Bad Religion - Gods Love Chords & Tabs

 

Gods Love Chords & Tabs

Bad Religion Chords & Tabs

Version: 1 Type: Tab 0 ratings
1 star 2 stars 3 stars 4 stars 5 stars
comments

Gods Love Tab

Artist: Bad Religion
Song: God's Love
Album: The Empire Strikes First

Verse: Play 4x

E|------------------------------------------------------|
B|------------------------------------------------------|
G|--------------88888888--------------------------------|
D|--5555--8888--88888888--5555--8888--1010101010101010--|
A|--5555--8888--66666666--5555--8888--1010101010101010--|
E|--3333--6666------------3333--6666---8-8-8-8-8-8-8-8--|

Chorus:

E|-------------------------(2x)-----------------------------|
B|----------------------------------------------------------|
G|----------------888888888888----------------555555555555--|
D|--555555555555--888888888888--333333333333--555555555555--|
A|--555555555555--666666666666--333333333333--333333333333--|
E|--333333333333----------------111111111111----------------|

(And what I'm frightened...)
E|--------------------------------------------|
B|--------------------------------------------|
G|--888888888888--1010101010101010101010--11--|
D|--888888888888--1010101010101010101010--11--|
A|--666666666666---8-8-8-8-8-8-8-8-8-8-8---9--|
E|--------------------------------------------|

Solo: (Other guitar play Verse)

E|--------------------------------------|
B|--------------------------------------|
G|--7777777-7p5p3------------3---3---5--|
D|----------------5--3h5-3h5---5---5----|
A|--------------------------------------|
E|--------------------------------------|

E|--------------------------------------|
B|--------------------------------------|
G|--7777777-7p5p3------------3---3------|
D|----------------5--3h5-3h5---5---5-5--|
A|--------------------------------------|
E|--------------------------------------|

Verse: Play 2x

E|------------------------------------------------------|
B|------------------------------------------------------|
G|--------------88888888--------------------------------|
D|--5555--8888--88888888--5555--8888--1010101010101010--|
A|--5555--8888--66666666--5555--8888--1010101010101010--|
E|--3333--6666------------3333--6666---8-8-8-8-8-8-8-8--|

Chorus:

E|-------------------------(2x)-----------------------------|
B|----------------------------------------------------------|
G|----------------888888888888----------------555555555555--|
D|--555555555555--888888888888--333333333333--555555555555--|
A|--555555555555--666666666666--333333333333--333333333333--|
E|--333333333333----------------111111111111----------------|
[ Tab from: http://www.guitartabs.cc/tabs/b/bad_religion/gods_love_tab.html ]
(And what I'm frightened...)
E|--------------------------------------------|
B|--------------------------------------------|
G|--888888888888--1010101010101010101010--11--|
D|--888888888888--1010101010101010101010--11--|
A|--666666666666---8-8-8-8-8-8-8-8-8-8-8---9--|
E|--------------------------------------------|

Bridge: Play through entire Bridge and into last chorus

E|---------------------------------------------------------------|
B|---------------------------------------------------------------|
G|--7---7---7---7---7---7---7---7---7---7---7---7---7---7---7----|
D|----5---5---5---5---5---5---5---5---5---5---5---5---5---5---5--|
A|---------------------------------------------------------------|
E|---------------------------------------------------------------|

(We can change...)
E|-------------------------|
B|-------------------------|
G|--8~----------8~----10~--|
D|--8-----3~----8-----10---|
A|--6-----3-----6------8---|
E|--------1----------------|

Chorus:

E|-------------------------(2x)-----------------------------|
B|----------------------------------------------------------|
G|----------------888888888888----------------555555555555--|
D|--555555555555--888888888888--333333333333--555555555555--|
A|--555555555555--666666666666--333333333333--333333333333--|
E|--333333333333----------------111111111111----------------|

(And what I'm frightened...)
E|--------------------------------------------|
B|--------------------------------------------|
G|--888888888888--1010101010101010101010--11--|
D|--888888888888--1010101010101010101010--11--|
A|--666666666666---8-8-8-8-8-8-8-8-8-8-8---9--|
E|--------------------------------------------|

Solo: h=hammer on // p=pull off // b=bend // v=vibrato

E|--------------------------------------|
B|--------------------------------------|
G|--7777777-7p5p3------------3---3---5--|
D|----------------5--3h5-3h5---5---5----|
A|--------------------------------------|
E|--------------------------------------|

E|--------------------------------------|
B|--------------------------------------|
G|--7777777-7p5p3------------3---3------|
D|----------------5--3h5-3h5---5---5-5--|
A|--------------------------------------|
E|--------------------------------------|

E|--------------------------------------------------------------------------|
B|----------------------------------------------------------13b-15b-16b-18b-|
G|-77777-10p7-10p7-7v-9v-10v-12v--17-20b-20-19p17h19p17p15------------------|
D|--------------------------------------------------------17----------------|
A|--------------------------------------------------------------------------|
E|--------------------------------------------------------------------------|
Comments