Bad Religion - Generator Chords & Tabs

 

Generator Chords & Tabs

Bad Religion Chords & Tabs

Version: 4 Type: Tab 0 ratings
1 star 2 stars 3 stars 4 stars 5 stars
comments

Generator Tab

E|----------------------------------------------------------------------- 
B|----------------------------------------------------------------------- 
G|----------------------------------------------------------------------- 
D|-7-7-7-7-----------3-3-3-3-----------5-5-5-5-5-5-5-5-5-5-5-5----------- 
A|-7-7-7-7-----------3-3-3-3-----------5-5-5-5-5-5-5-3-3-3-3-2----------- 
E|-5-5-5-5-----------1-1-1-1-----------3-3-3-3-3-3-0--------------------- 
Like a Like a Like a fuckin 
rock planet atom bomb 


E|----------------------------------------------------------------------- 
B|----------------------------------------------------------------------- 
G|----------------------------------------------------------------------- 
D|---7-7-7-7-7-7---3-3-3-3-3-3---5-5-5-5-5-5---2-2-2-2-2-2--------------- 
A|---7-7-7-7-7-7---3-3-3-3-3-3---5-5-5-5-5-5---2-2-2-2-2-2--------------- 
E|---5-5-5-5-5-5---1-1-1-1-1-1---3-3-3-3-3-3---0-0-0-0-0-0--------------- 

*=10 (no space) 

E|------------------------------------------------------------- 
B|------------------------------------------------------------- 
G|-2-2-2-4-4-4-5-5-5-4-4--------*-*-*-9-9-9-*-*-*-9-9---------- 
D|-2-2-2-2-2-2-2-2-2-2-2--------*-*-*-*-*-*-*-*-*-*-*---------- 
A|-0-0-0-0-0-0-0-0-0-0-0--------8-8-8-8-8-8-8-8-8-8-8---------- 
E|------------------------------------------------------------- 
Ive seen it all before In books an magazines 
[ Tab from: http://www.guitartabs.cc/tabs/b/bad_religion/generator_tab_ver_4.html ]
E|------------------------------------------------------------- 
B|------------------------------------------------------------- 
G|-5-5-5-4-4-4-5-5-5-4-4-------------------4-4-4--------------- 
D|-5-5-5-5-5-5-5-5-5-5-5-------5-5-5-7-7-7-5-5-5-5-5----------- 
A|-3-3-3-3-3-3-3-3-3-3-3-------5-5-5-5-5-5-5-5-5-5-5----------- 
E|-----------------------------3-3-3-3-3-3-3-3-3-3-3----------- 
Like a twitch before like a pornographic 
dying sea 


Its the generator 

(s = slide chord up, *=10) 

E|-------------------------------------------------------------- 
B|-------------------------------------------------------------- 
G|---------------------------8-------------------------------8-- 
D|7-7-7-7-7-7-8s*--8s*-7-7-7-8---7-7-7-7-7-7-8s*--8s*--7-7 7-8-6 
A|7-7-7-7-7-7-8s*--8s*-7-7-7-6---7-7-7-7-7-7-8s*--8s*--7-7-7-6-6 
E|5-5-5-5-5-5-6s8--6s8-5-5-5-----5-5-5-5-5-5-6s8--6s8--5-5-5---4 

E|-------------------------------------------------------------- 
B|-------------------------------------------------------------- 
G|----------------------------8-8-8-8--9-6---9-6---9-6---9-6---9 
D|7-7-7-7-7-7-8s*--6s*--7-7-7-8-8-8-8------7-----7-----7-----7-- 
A|7-7-7-7-7-7-8s*--6s*--7-7-7-6-6-6-6--------------------------- 
E|5-5-5-5-5-5-6s8--6s8--5-5-5----------------------------------- 

Then the noisy part 

E|-------------------------------------------------------------- 
B|-------------------------------------------------------------- 
G|9-9-9-9-9-9--8-8-8-8-8-8--9-9-9-9-9-9-9--8-8-8-8-8-8---------- 
D|7-7-7-7-7-7--7-7-7-7-7-7--7-7-7-7-7-7-7--7-7-7-7-7-7---------- 
A|-------------------------------------------------------------- 
E|-------------------------------------------------------------- 

Repeat this twice, cant figure out the solos but this is 99% 
correct. If you have any questions / comments, email me at 
barracudafinn@hotmail.com . Thanks 
Brian
Comments