Bad Religion - Generator Chords & Tabs

 

Generator Chords & Tabs

Bad Religion Chords & Tabs

Version: 3 Type: Tab 0 ratings
1 star 2 stars 3 stars 4 stars 5 stars
comments

Generator Tab

   
------------------------------------------------------------------------------- 
                        GENERATOR - Bad Religion
------------------------------------------------------------------------------- 

By: Terry (AFI_Follower3@hotmail.com) 

Whatcha need to know: 
*-* - Secondary Verse 
o 
- Repeat 
o 

Intro 
e|-----------| 
B|-----------| 
G|-----------| 
D|-------5-4-| 
A|-7-3-5-3-2-| 
E|-5-1-3-----| 

Verse1 
e|---------|----*-*----| 
B|---------|-----------| 
G|---------|o---------o| 
D|---------|o-----5---o| 
A|-7-3-5-2-|--7-3-3-5--| 
E|-5-1-3-0-|--5-1---3--| 
[ Tab from: http://www.guitartabs.cc/tabs/b/bad_religion/generator_tab_ver_3.html ]
Chorus 
e|---------------------------------|-----| 
B|---------------------------------|-----| 
G|o-------------3-------------3---o|o-3-o| 
D|o---3-5-3-5---1---3-5-3-5---1---o|o-1-o| 
A|--7-1-3-1-3-7---7-1-3-1-3-7---6--|-----| 
E|--5---------5---5---------5---4--|-----| 

Verse2 
e|-------------------||----*-*----| 
B|-------------------||-----------| 
G|-------------------||o---------o| 
D|-------5-4---------||o-----5---o| 
A|-7-3-5-3-2-7-3-5-2-||--7-3-3-5--| 
E|-5-1-3-----5-1-3-0-||--5-1---3--| 

Chorus 
e|-------------------------------| 
B|-------------------------------| 
G|-------------3-------------3---| 
D|---3-5-3-5---1---3-5-3-5---1---| 
A|-7-1-3-1-3-7---7-1-3-1-3-7---6-| 
E|-5---------5---5---------5---4-| 

Solo/Outro 
e|--*?*--| 
B|---?---| 
G|---?---| 
D|---?---| 
A|---?---| 
E|---?---| 
(Guitar 1 plays secondary verse over top of solos) 

=============================================================================
Comments