Bad Religion - Generator Chords & Tabs

 

Generator Chords & Tabs

Bad Religion Chords & Tabs

Version: 1 Type: Bass Tab 0 ratings
1 star 2 stars 3 stars 4 stars 5 stars
comments

Generator Bass Tab

GENERATOR - Bad Religion

Intro
G|---------------------------------------------------------------------------|
D|----------7----------------------------------------------------------------|
A|-----5h7h5-----5h7h5-----(x2)----------------------------------------------|
E|--------------------5------------------------------------------------------|
[ Tab from: http://www.guitartabs.cc/tabs/b/bad_religion/generator_btab.html ]
Verse:
G|---------------------------------------------------------------------------|
D|-----------5-5-5-----------------------------------------------------------|
A|-----7-7-7-------5-5-5-------(x6)------------------------------------------|
E|-----------------------5-5-5-----------------------------------------------|

Chorus:
G|---------------------------------------------------------------------------|
D|---------------------------------------------------------------------------|
A|----33333333333333322222222222111111111100000------------------------------|
E|---------------------------------------------------------------------------|

G|--------------------------------------111----------------------------------|
D|------------------------------222-------------------32323------------------|
A|----3333333---33333333-----------------------------------------------------|
E|-------------------------------------------00------------------------------|
Comments