Bad Religion - Fuck Armageddon This Is Hell Chords & Tabs

 

Fuck Armageddon This Is Hell Chords & Tabs

Bad Religion Chords & Tabs

Version: 1 Type: Tab 0 ratings
1 star 2 stars 3 stars 4 stars 5 stars
comments

Fuck Armageddon This Is Hell Tab

Fuck Armageddon This Is Hell
Jeff J. Munt
munt@freenet.calgary.ab.ca
Comments, corrections, etc. welcome.

intro
e----------------------------------------------------------------------------
B----------------------------------------------------------------------------
G-9-10-7-7----7---9-10-7-7----7----------------------------------------------
D----------10--------------10------------------------------------------------
A----------------------------------------------------------------------------
E----------------------------------------------------------------------------


Verse
e----------------------------------------------------------------------------
B----------------------------------------------------------------------------
G--9----7-----6---------------------9---7---5---3----2-----------------------
D--9----7-----6----7----------------9---7---5---3----2-----------------------
A--7----5-----4----7----------------7---5---3---1----0-----------------------
E------------------5---------------------------------------------------------

[ Tab from: http://www.guitartabs.cc/tabs/b/bad_religion/fuck_armageddon_this_is_hell_tab.html ]
THE SOLO (by Tommy) :

e--0--slide to-0-0-0-0-0-----------------0--slide to-0-0-0-0-0--2-0--
B--3--slide to-5-5-5-5-5--3-2----3-2---3--slide to-5-5-5-5-5------2--
G----------------------------------2------2--------------------------
D--------------------------------------------------------------------
A--------------------------------------------------------------------
E--------------------------------------------------------------------

e--2-0----0--slide to-0-0-0-0-0--2-0--2-0---0--slide to-0-0-0-0-0--
B-------2-3--slide to-5-5-5-5-5------2-----2-3--slide to-5-5-5-5-5-
G------------------------------------------------------------------
D------------------------------------------------------------------
A------------------------------------------------------------------
E------------------------------------------------------------------


e-----------------------
B-----------------------
G-3-2-------------------
D------3-2----------2-3-
A-----------3-2-2-3-----
E-----------------------

Tommy said this is COMPLETELY right.  His email address is FarmerSOB@aol.com
Comments