Bad Religion - Epiphany Chords & Tabs

 

Epiphany Chords & Tabs

Bad Religion Chords & Tabs

Version: 2 Type: Tab 0 ratings
1 star 2 stars 3 stars 4 stars 5 stars
comments

Epiphany Tab

   
Tab by	: Joris Mak 
Tab date	: 23-nov-2001
Artist          : Bad Religion
Album		: The Progress of Belief
Song		: Epiphany
Track#	        : 9
Note		: Best song on the album without doubt I.M.O. :)


Verse Part 1:

D C Bb A
D f Bb A		(small f = high f)


Post-Verse-Part-1:

e ----------------------------------------------------------------------------------------
B ----------------------------------------------------------------------------------------
G ----------------------------------------------------------------------------------------
D -7---7---7-7---7------------------------------------------------------------------------
A ----------------------------------------------------------------------------------------
E ----------------------------------------------------------------------------------------

Verse Part 2:

Bb    A     

Pre-chorus:

   A xxA BbA xxA BbA       A  A  Bb C
e ----------------------------------------------------------------------------------------
B ----------------------------------------------------------------------------------------
G ----------------------------------5-----------------------------------------------------
D -7-xx7-8-7-xx7-8-7-...---7--7--8--5-----------------------------------------------------
A -7-xx7-8-7-xx7-8-7-...---7--7--8--3-----------------------------------------------------
E -5-xx5-6-5-xx5-6-5-...---5--5--6--------------------------------------------------------

(x = harmonics around the A chord / 5th fret)

Chorus:

   D        A  Bb       f  C    f e
e ----------------------------------------------------------------------------------------
B ----------------------------------------------------------------------------------------
G -7~~~~~---------------10-5----109-------------------------------------------------------
D -7~~~~~---7--8~~~~~---10-5----109-------------------------------------------------------
A -5~~~~~---7--8~~~~~--- 8-3---- 87-------------------------------------------------------
E ----------5--6~~~~~---------------------------------------------------------------------

(~ = is just let the chord go, don't mute or bend it... Or other fancy stuff :))
(the way you strum the chords during chorus is completely up to you ofcourse)

   D        A  Bb       f  C    f e f    e/f  e   e
e ----------------------------------------------------------------------------------------
B ----------------------------------------------------------------------------------------
G -7~~~~~---------------10-5----109-10---9/10-9---9---------------------------------------
D -7~~~~~---7--8~~~~~---10-5----109-10---9/10-9---7---------------------------------------
A -5~~~~~---7--8~~~~~--- 8-3---- 87- 8---7/ 8-7---7---------------------------------------
E ----------5--6~~~~~---------------------------------------------------------------------

(/ and \ = slide)
(not sure about the last 'e' chord. Maybe both a low and high e?)

Post-chorus:

e ----------------------------------------------------------------------------------------
B ----------------------------------------------------------------------------------------
G -7-----------------------5---7-----------7----------------------------------------------
D -----7---------------7-----------5~~~~~------7------------------------------------------
A ---------5---7---8-------------------------------8~~~--7h8p7----------------------------
E ----------------------------------------------------------------------------------------

(h and p = hammer & pull)


Bridge Part 1 (play twice):
[ Tab from: http://www.guitartabs.cc/tabs/b/bad_religion/epiphany_tab_ver_2.html ]
   A   A   A   A    f           C        G G G G G G G G
e ----------------------------------------------------------------------------------------
B ----------------------------------------------------------------------------------------
G ------------------------------5~~~~~----------------------------------------------------
D -7---7---7---7----3~~~~~------5~~~~~---5-5-5-5-5-5-5-5----------------------------------
A -7---7---7---7----3~~~~~------3~~~~~---5-5-5-5-5-5-5-5----------------------------------
E -5---5---5---5----1~~~~~---------------3-3-3-3-3-3-3-3----------------------------------
                                         |             |
                                         -pm------------
(pm = palmmute)

Bridge Part 2 (play twice and go into solo):

   A   A   A   A    f           C     
e ----------------------------------------------------------------------------------------
B ----------------------------------------------------------------------------------------
G ------------------------------5~~~~~----------------------------------------------------
D -7---7---7---7----3~~~~~------5~~~~~----------------------------------------------------
A -7---7---7---7----3~~~~~------3~~~~~----------------------------------------------------
E -5---5---5---5----1~~~~~----------------------------------------------------------------


Solo (not exactly accurate, but it's a good start...)

e -----------------------------------------------------------------------------------------
B ---------------------------------------------5h6p5---5-----------------------------------
G -------------------------5-------------------------5---5---------------------------------
D -7-------5-----------5-------5-------7h8p7---------------5-------7h8p7-------------------
A -----5-------5---8-----------------------------------------------------8---8-------------
E ---------------------------------8---------------------------8-----------------8---8-----

e -----------------------------------------------------------------------------------------
B -----------------------------------------------------------------------------------------
G ---------------------------5-------------------------------------------------------------
D -----------------------------------------------------------------------------------------
A -7h8p7h8p7h8p7h8p7h8p7h8p7---------------------------------------------------------------
E -----------------------------------------------------------------------------------------

e -----------------------------------------------------------------------------------------
B - 9h10p-9-----9--------------------------------------------------------------------------
G ----------10----10--9h10p-9-----9---------------9h10p-9h10p-9----------------------------
D ----------------------------10----11-10~~~~~~-----------------10~~~~~--------------------
A -----------------------------------------------------------------------------------------
E -----------------------------------------------------------------------------------------

e -----------------------------------------------------------------------------------------
B -----------------9~~~~~------------------------------------------------------------------
G - 9h10p-9h10p-9------------------this part I can't manage to figure out------------------
D ---------------------------------fiddle and bend around a bit till the end---------------
A -----------------------------------------------------------------------------------------
E -----------------------------------------------------------------------------------------

e -----------------------------------------------------------------------------------------
B -12b--14b--15b--17b--19b-----------------------------------------------------------------
G -12b--14b--15b--17b--19b-----------------------------------------------------------------
D------------------------------------------------------------------------------------------
A -----------------------------------------------------------------------------------------
E -----------------------------------------------------------------------------------------

(b = bend)
(the last '19b' goes into chorus again)

23-Nov-2001:
I haven't figured the solo out yet (well, I already got the ending *ahem*), but it's
1.00am now and I have a busy day tomorrow, so that's something for later.

24-Nov-2001:
Not so busy day after all. I did an attempt at the solo, hope it helps the better tabbers
out there out to fill in the details


Have fun!
		- Joris
Comments