Bad Religion - Dream Of Unity Chords & Tabs

 

Dream Of Unity Chords & Tabs

Bad Religion Chords & Tabs

Version: 1 Type: Tab 0 ratings
1 star 2 stars 3 stars 4 stars 5 stars
comments

Dream Of Unity Tab

Author/Artist: Bad Religion
Title: Dream of Unity
Album: Tested
Transcribed by: Dave Raine
Email: Wouldn't You Like To Know?

Tune your guitar down 1/2 a step

Intro (x4)
-0--0--0--0-2-2-|
-0--0--0--0-3-3-|
-0--0--0--0-2-2-|
-2--2--2--2-0-0-|
-2--2--2--2-----|
-0--0--0--0-----|

Verse 1
"I had a dream..."
-3--3--3--3--2-----0--0-2-2-0--0-|
-0--0--0--0--3--3--0--0-3-3-0--0-|
-0--0--0--0--2--4--0--0-2-2-0--0-|
-0--0--0--0--0--4--2--2-0-0-2--2-|
-2--2--2--2-----2--2--2-----2--2-|
-3--3--3--3--------0--0-----0--0-|

-3--3--3--3--2--2-3-3--2--2-|
-0--0--0--0--3--3-0-0--3--3-|
-0--0--0--0--2--2-0-0--2--2-|
-0--0--0--0--0--0-0-0--0--0-|
-2--2--2--2-------2-2-------|
-3--3--3--3-------3-3-------|

-0--3--3--3--2-----0--0-|
-0--2--0--0--3--3--0--0-|
-0--3--0--0--2--4--0--0-|
-2--0--0--0--0--4--2--2-|
-2-----2--2-----2--2--2-|
-0-----3--3--------0--0-|

-3--3--2--2--0--0-3-3--0--0-3-3--0--0-3-3--0--0-3-3--|
-0--0--3--3--0--0-2-2--0--0-2-2--0--0-2-2--0--0-2-2--|
-0--0--2--2--0--0-3-3--0--0-3-3--0--0-3-3--0--0-3-3--|
-0--0--0--0--2--2-0-0--2--2-0-0--2--2-0-0--2--2-0-0--|
-2--2--------2--2------2--2------2--2------2--2------|
-3--3--------0--0------0--0------0--0------0--0------|

Verse 2
"Sometimes we strive..."
-3--3--3--3--2-----0--0-2-2-0--0-|
-0--0--0--0--3--3--0--0-3-3-0--0-|
-0--0--0--0--2--4--0--0-2-2-0--0-|
-0--0--0--0--0--4--2--2-0-0-2--2-|
-2--2--2--2-----2--2--2-----2--2-|
-3--3--3--3--------0--0-----0--0-|

-3--3--3--3--2--2-3-3--2--2-|
-0--0--0--0--3--3-0-0--3--3-|
-0--0--0--0--2--2-0-0--2--2-|
-0--0--0--0--0--0-0-0--0--0-|
-2--2--2--2-------2-2-------|
-3--3--3--3-------3-3-------|

-0--3--3--3--2-----0--0-|
-0--2--0--0--3--3--0--0-|
-0--3--0--0--2--4--0--0-|
-2--0--0--0--0--4--2--2-|
-2-----2--2-----2--2--2-|
-0-----3--3--------0--0-|

-3--3--2--2--0--0-3-3--0--0-3-3--0--0-3-3--0--0-3-3--|
-0--0--3--3--0--0-2-2--0--0-2-2--0--0-2-2--0--0-2-2--|
-0--0--2--2--0--0-3-3--0--0-3-3--0--0-3-3--0--0-3-3--|
-0--0--0--0--2--2-0-0--2--2-0-0--2--2-0-0--2--2-0-0--|
-2--2--------2--2------2--2------2--2------2--2------|
-3--3--------0--0------0--0------0--0------0--0------|
[ Tab from: http://www.guitartabs.cc/tabs/b/bad_religion/dream_of_unity_tab.html ]
Solo on guitar 1
-0---0-0-0-0-----1---0---0-0-0-0-----1---0---0-0-0-0-----1---0---0-0-0-0-----1--|
--------------3-------------------3-------------------3-------------------3-----|
--------------------------------------------------------------------------------|
--------------------------------------------------------------------------------|
--------------------------------------------------------------------------------|
--------------------------------------------------------------------------------|

During solo, guitar 2 plays
-0--0-3-3--0--0-3-3--0--0-3-3--0--0-3-3--|
-0--0-2-2--0--0-2-2--0--0-2-2--0--0-2-2--|
-0--0-3-3--0--0-3-3--0--0-3-3--0--0-3-3--|
-2--2-0-0--2--2-0-0--2--2-0-0--2--2-0-0--|
-2--2------2--2------2--2------2--2------|
-0--0------0--0------0--0------0--0------|

Verse 3
"I had a dream..."
-3--3--3--3--2-----0--0-2-2-0--0-|
-0--0--0--0--3--3--0--0-3-3-0--0-|
-0--0--0--0--2--4--0--0-2-2-0--0-|
-0--0--0--0--0--4--2--2-0-0-2--2-|
-2--2--2--2-----2--2--2-----2--2-|
-3--3--3--3--------0--0-----0--0-|

-3--3--3--3--2--2-3-3--2--2-|
-0--0--0--0--3--3-0-0--3--3-|
-0--0--0--0--2--2-0-0--2--2-|
-0--0--0--0--0--0-0-0--0--0-|
-2--2--2--2-------2-2-------|
-3--3--3--3-------3-3-------|

-0--3--3--3--2-----0--0-|
-0--2--0--0--3--3--0--0-|
-0--3--0--0--2--4--0--0-|
-2--0--0--0--0--4--2--2-|
-2-----2--2-----2--2--2-|
-0-----3--3--------0--0-|

-3--3--2--2--0--0-3-3--0--0-|
-0--0--3--3--0--0-2-2--0--0-|
-0--0--2--2--0--0-3-3--0--0-|
-0--0--0--0--2--2-0-0--2--2-|
-2--2--------2--2------2--2-|
-3--3--------0--0------0--0-|

-3--3--2--2--0--0-3-3--0--0-3-3--0--0-3-3--0-|
-0--0--3--3--0--0-2-2--0--0-2-2--0--0-2-2--0-|
-0--0--2--2--0--0-3-3--0--0-3-3--0--0-3-3--0-| Let last chord ring
-0--0--0--0--2--2-0-0--2--2-0-0--2--2-0-0--2-|
-2--2--------2--2------2--2------2--2------2-|
-3--3--------0--0------0--0------0--0------0-|

I'm sure this tab is just about correct, but at some parts,
the guitar doesn't play the chords, just notes from the
chords, but how I've written sounds good anyway.

The lyrics

I had a dream of unity
Where we would walk side by side
But today I see that its only me
Just tryin' to get by

Sometimes we strive undeterred
To walk as one toward our goals
But as people stray toward more selfish ways
We see we have no control

I had a dream of unity
Where we would walk side by side
But today I see that its only me
Just tryin' to get by
Just tryin' to get by
Comments