Bad Religion - Do What You Want Chords & Tabs

 

Do What You Want Chords & Tabs

Bad Religion Chords & Tabs

Version: 4 Type: Tab 0 ratings
1 star 2 stars 3 stars 4 stars 5 stars
comments

Do What You Want Tab

------------------------------------------------------------------------- 
DO WHAT YOU WANT - Bad Religion 
------------------------------------------------------------------------- 

By:DEREK MOORE 

[INTRO] 
e|--------------------------------------------------------------------| 
B|--------------------------------------------------------------------| 
G|--------------------------------------------------------------------| 
D|--5-5-5-5-5-5-5-5---------------------------------------------------| 
A|--3-3-3-3-3-3-3-3---9-9-9-9-9-9-------------------------------------| 
E|--------------------7-7-7-7-7-7-------------------------------------| 

REPEAT (4X)PRETTY FAST 
e|--------------| 
B|--------------| 
G|--------------| 
D|--9--5-----7--| 
A|--7--3--5--5--| 
E|--------3-----| 
[ Tab from: http://www.guitartabs.cc/tabs/b/bad_religion/do_what_you_want_tab_ver_4.html ]
REPEAT (4X) 
e|--------------------------------------------------------------------| 
B|--------------------------------------------------------------------| 
G|--------------------------------------------------------------------| 
D|--9--9--9--5--5--5-----------7--7--7--------------------------------| 
A|--7--7--7--3--3--3--5--5--5--5--5--5--------------------------------| 
E|--------------------3--3--3-----------------------------------------| 
DO WHAT YOU WANT, BUT DON'T DO IT AROUND ME.... 

e|--------------------------------------------------------------------| 
B|--------------------------------------------------------------------| 
G|--------------------------------------------------------------------| 
D|--5--7--9--9--9--5--7--9--9--9--5--9--9--9--------------------------| 
A|--3--5--7--7--7--3--5--7--7--7--3--7--7--7--------------------------| 
E|--------------------------------------------------------------------| 
DO WHAT YOU WANT, DO ALL YOU CAN....... 

REPEAT THE BEGINNING,VERSE AND CHORUS (1X) 

-------------------------------------------------------------------------
Comments