Bad Religion - Cant Stop It Chords & Tabs

 

Cant Stop It Chords & Tabs

Bad Religion Chords & Tabs

Version: 1 Type: Bass Tab 0 ratings
1 star 2 stars 3 stars 4 stars 5 stars
comments

Cant Stop It Bass Tab

CAN'T STOP IT (2001) by Bad Religion
>From "The Process of Belief"                                    
:
# main # X2 (last note only 1X the 2nd time)                     
G------------------------------------|
D------------------------------------|
A--------------66-6------------88-8--|
E--77-788-855-5----77-788-855-5------|
:
# verse # *=play 8X #=play 4X                    
G------------------------------------------------|
D-------------*----#-----------------------------|
A---*----*---3----3----53--*----*----*---3---5---|
E--7----7-----------------7----7----3------3---3-|
:
# chorus # *=play 6X                          
G-|---------X2----------|----------------------|
D-|---------------------|----------------------|
A-|--*----*----*----*---|---*----*----*----*---|
E-|-7----5----3----2----|--3----5----7----7----|
:
then play main (last note 1X), verse,chorus, main X1.5 
:
# end #
G-----|
D-----|
A-----|
E--7\-|
:
Kick ass! 
Tabbed by Squirrels2Nuts (josh_wright@hotmail.com) 
12.31.2001
[ Tab from: http://www.guitartabs.cc/tabs/b/bad_religion/cant_stop_it_btab.html ]
Comments