Bad Religion - Broken Chords & Tabs

 

Broken Chords & Tabs

Bad Religion Chords & Tabs

Version: 3 Type: Tab 0 ratings
1 star 2 stars 3 stars 4 stars 5 stars
comments

Broken Tab

Bad Religion - Broken
Album: Process of Belief
Tuning: Standard
Tabbed By: Dean K. (projectwyze13@hotmail.com)


Intro
e|--------------------|
B|--------------------|
G|--------------------|
D|---5-5-5-5-5-5-5-5--|
A|---7-7-7-7-7-7-7-7--|
E|--------------------|

e|--------------------------------------|
B|--------------------------------------|
G|--------------------------------------|
D|-----------------------------7-7-7-7--|
A|--7-7-7-7--5-5-5-5--3-3-3-3--5-5-5-5--|
E|--5-5-5-5--3-3-3-3--1-1-1-1-----------|

e|------------------------------|
B|------------------------------|
G|------------------------------|
D|--9-9-99-9-9-9-99-9-9-99-9-9--|
A|--7-7-77-7-7-7-77-7-7-77-7-7--|
E|------------------------------|

Verse 
(Acoustic)
e|-------------------------------------------------|
B|--1----3----1----0--------1----3----1----3----1--|
G|--2----0----2----1--------2----0----2----2----0--|
D|--2----0----2----2--------2----0----3----0----2--|
A|--0----2----0----2--------0----2----3---------3--|
E|-------3---------0-------------3----1------------|

(Distorted)
e|--------|--------------------|
B|--------|--------------------|
G|--------|--------------------|
D|--10\\--|--//7-7-77-7-5~~~~--|
A|---8\\--|--//5-5-55-5-3~~~~--|
E|--------|--------------------|

Chorus
e|--------------------------------------|
B|--------------------------------------|
G|--------------------------------------|
D|-----------------------------7-7-7-7--|
A|--7-7-7-7--5-5-5-5--3-3-3-3--5-5-5-5--|
E|--5-5-5-5--3-3-3-3--1-1-1-1-----------|

e|------------------------------|
B|------------------------------|
G|------------------------------|
D|--9-9-99-9-9-9-99-9-9-99-9-9--|
A|--7-7-77-7-7-7-77-7-7-77-7-7--|
E|------------------------------|
[ Tab from: http://www.guitartabs.cc/tabs/b/bad_religion/broken_tab_ver_3.html ]
Bridge
e|--------------------------------------------------------------|
B|--------------------------------------------------------------|
G|--------------------------------------------------------------|
D|---------------7-7-7-7-7-7------------------------------------|
A|--7-7-7-7-7-7--5-5-5-5-5-5--3-3-3-3-3-3-3-3--2-2-2-2-2-2-2-2--|
E|--5-5-5-5-5-5---------------1-1-1-1-1-1-1-1--0-0-0-0-0-0-0-0--|

Solo
e|--------------------------------------------|
B|--------8--8h10p8-------------8--8h10p8-----|
G|--7--9-------------9----7--9-------------9--|
D|--------------------------------------------|
A|--------------------------------------------|
E|--------------------------------------------|

e|--------------------------------------|
B|--------------------------------------|
G|--7--9--------------7--9--------------|
D|--------9/10\9~~----------9/10\9~~~~--|
A|--------------------------------------|
E|--------------------------------------|

Before Outro
e|------------------------------------------|
B|------------------------------------------|
G|------------------------------------------|
D|--------------------10-10-10-10--9-9-9-9--|
A|--7-7-7-7--5-5-5-5---8--8--8--8--7-7-7-7--|
E|--5-5-5-5--3-3-3-3------------------------|

Outro
e|--------------------------------------|
B|--------------------------------------|
G|--------------------------------------|
D|-----------------------------7-7-7-7--|
A|--7-7-7-7--5-5-5-5--3-3-3-3--5-5-5-5--|
E|--5-5-5-5--3-3-3-3--1-1-1-1-----------|

e|--------------------------------------|
B|--------------------------------------|
G|--------------------------------------|
D|--9-9-99-9-9-9-99-9-9-99-9-9----7~~---|
A|--7-7-77-7-7-7-77-7-7-77-7-7----7~~---|
E|--------------------------------5~~---|
Comments