Bad Religion - Broken Chords & Tabs

 

Broken Chords & Tabs

Bad Religion Chords & Tabs

Version: 2 Type: Tab 0 ratings
1 star 2 stars 3 stars 4 stars 5 stars
comments

Broken Tab

   
-------------------------------------------------------------------------------
			     BROKEN - Bad Religion
-------------------------------------------------------------------------------

Tabbed out by Patrick Dawson (wcdawson@optonline.net)

INTRO:
E|---
A|-/7...
D|-/6...
G|-/7...
B|---
e|---

CHORUS:

[p.m. the chords in parentheses]
A GG FF DDDD C (3x)
(EE) E EE (E) E (E) E EEEE


VERSE:

Acoustic/Clean Electric:
[all chords should be played w/o high E string]
Am G Am Em
Am G F D C

Lead Guitar:
E|-------------------------------3-0-|
A|-/7/-5555-33------5555-33-2-0------|
D|-/9/-7777-5-------7777-5-----------|
G|-/9/-------------------------------|
[pick slide into chorus]


BRIDGE:
"When the world is turning for you..."
[ Tab from: http://www.guitartabs.cc/tabs/b/bad_religion/broken_tab_ver_2.html ]
E|----------------------------|
A|----------------------------|
D|---7----------7---5/7-------|
G|--5---(8x)-----5-5---5-5----|
B|-5--------------5-----5-----|
e|----------------------------|


SOLO:
[play chorus chords on rhythm guitar]

E|-------------------------------------------------------------------------------------|
A|-------------------------------------------------------------------------------------|
D|-----------------------------------------------------14-14b15b14---------14-14b15b14-|
G|-12h14-------------14---12h14-------------14---12h14---------------12h14-------------|
B|-------12-12b14b12------------12-12b14b12--------------------------------------------|
e|-------------------------------------------------------------------------------------|


LAST VERSE:
"I'm not the kind to insist..."

Same as before, but no distorted except for at the end, like this:

A AA GGG F(hi) DDDD C


OUTRO:
"I'm unbroken..."

Continue chorus chords, end with:

   A
E|-5--
A|-7--
D|-7--
G|-5--
B|-5--
e|-5--
Comments