Bad Religion - Broken Chords & Tabs

 

Broken Chords & Tabs

Bad Religion Chords & Tabs

Version: 1 Type: Bass Tab 0 ratings
1 star 2 stars 3 stars 4 stars 5 stars
comments

Broken Bass Tab

   
Song:  Broken
Band:  Bad Religion
Album: The process of Belief
By:    Leight (Product-71 Bassist)(http://snap.to/product71)

I just wanna thank Gibal Sandwich for being the first to put this tab
on the internet, but if you listen carefully he plays way more than
just the two tabs! It's a simple song, just a big order to remember!

CHORUS
G/---------------------
D/---------------------
A/-3333-2222-3333-0000-
E/---------------------

POST CHORUS
G/-------------------
D/-------------------
A/-33333333-00000000-
E/-------------------

VERSE
G/---------------------|
D/---------------------|
A/-2222------0000------|
E/------3333------3333-|

|--------------------
|--------------------
|-0000-3333-00000000-
|--------------------

VERSE 2
G/---------------------
D/---------------------
A/-2222-3333-0000------
E/----------------3333-
[ Tab from: http://www.guitartabs.cc/tabs/b/bad_religion/broken_btab.html ]
INTERLUDE
G/---------------------
D/---------------------
A/-3333-0000-----------
E/-----------3333-0000-

ORDER
*************************
NO BASS ON INTRO (0:05)
CHORUS      X3
POST CHORUS X1
VERSE       X2
VERSE 2     X2
CHORUS      X3
POST CHORUS X1
VERSE       X2
VERSE 2     X2
CHORUS      X3
POST CHORUS X1
VERSE 2     X4
INTERLUDE   X4
VERSE       X3
CHORUS      X3
POST CHORUS X1
CHORUS      X3
POST CHORUS X1
===========   Bad Religion - Broken
   Tabbed by Gibal Sandwich. 
   Credit? Goes to Bad Religion for an ace song.
   Site? http://www.somrux.com/ringworld/index.htm
   If u aint seen ring - u aint lived...oh yeah - the tab!

  Intro/Chorus

  G|-----------------| x Count ya self!
  D|-----------------|
  A|-------------5-5-|
  E|-5-5-3-3-1-1-----|

  Verse

  G|---------------------------------
  D|---------------------------------
  A|-----------------------------5-5-
  E|-5-5-3-3-5-5-0-0-5-5-3-3-1-1-----

   Thats it. So he says...Corrections by email please:
   sickdudeuk@hotmail.com (Dont get put off by the name - i dont bite...much)
Comments