Bad Religion - Beyond Electric Dreams Chords & Tabs

 

Beyond Electric Dreams Chords & Tabs

Bad Religion Chords & Tabs

Version: 3 Type: Tab

Beyond Electric Dreams Tab

Song: Beyond Electric Dreams
Band: Bad Religion 

Intro Chord Progression (When only the guitar sounds):

E-----------------------------------׀
B-----------------------------------׀
G--55555555------7777---------------׀
D--55555555-3333-7777-777777777777--׀
A--33333333-3333-5555-777777777777--׀
E-----------1111------555555555555--׀


After first “chord run”, play these chords- verse chords

E---------------------------------------׀
B---------------------------------------׀
G--5555555------7777--------------------׀
D--5555555-3333-7777-777777777777-6666--׀
A--3333333-3333-5555-777777777777-6666--׀
E----------1111------555555555555-4444--׀

Chorus Progression
[ Tab from: http://www.guitartabs.cc/tabs/b/bad_religion/beyond_electric_dreams_tab_ver_3.html ]
E-----------------׀
B-----------------׀
G--------5--------׀
D--7--3--5--5--6--׀
A--7--3--3--5--6--׀
E--5--1-----3--4--׀

Bridge

E----------------------׀\
B----------------------׀ \
G-------------9-10-9~--׀  \ Play this piece
D---10~-10s12----------׀  /     2 times
A----------------------׀ / 
E----------------------׀/


After previous piece, play these chords (I think it could be these chords, or, a short
melody based on the following chord progression) Play it twice:

E-----------׀
B-----------׀
G--5--------׀
D--5--5--7--׀
A--3--5--7--׀
E-----3--5--׀

Then, play the chorus chords for the rest of the song, when the vocalist sings:
“Let’s go where the raptor goes...we’ll have a genuine terrestrial show...on a
mountain, on a mountain...”

And that’s that.  Maybe it’s not 100% correct, but it sounds pretty much like
the song.