Bad Religion - Beyond Electric Dreams Chords & Tabs

 

Beyond Electric Dreams Chords & Tabs

Bad Religion Chords & Tabs

Version: 1 Type: Tab 0 ratings
1 star 2 stars 3 stars 4 stars 5 stars
comments

Beyond Electric Dreams Tab

Bad Religion
"Beyond Electric Dreams"
The Empire Strikes First
Tabbed By: Ronny
XFragileTimeX@yahoo.com

VERSE/Intro:
"Nobody can show you where it is..."
e-------------------------------------------
B-------------------------------------------
G-------------------------------------------
D---5---------7-----------------------------
A---3---3-----5---7----6--------------------
E-------1---------5-/--4--------------------

CHORUS:
"Up on a mountain..."
e----------------------------------
B----------------------------------
G----------------------------------
D----------5-----------------------
A-7---3----3---5---6---------------
E-5---1--------3-/-4---------------
[ Tab from: http://www.guitartabs.cc/tabs/b/bad_religion/beyond_electric_dreams_tab.html ]
BRIDGE: harmonic chords
e--------------------------x------------------
B--------------------------x------------------
G-5-----7---9--10---10-----x------------------
D-x-----x---x--x----x------x------------------
A-3-----5---7--8----7------x---3--------------
E--------------------------x-------4-----5----

e--------------------------------------------
B--------------------------------------------
G--------------------------------------------
D--5-----------------------------------------
A--3--6----7---------------------------------
E-----4----5---------------------------------

OUTRO:
"live...live..."
e----------------------------------------
B----------------------------------------
G----------------------------------------
D----------5-----------------------------
A-7---3----3---5---6---------------------
E-5---1--------3-/-4--------------------- 
Comments