Bad Religion - Bad Religion Chords & Tabs

 

Bad Religion Chords & Tabs

Bad Religion Chords & Tabs

Version: 1 Type: Tab 0 ratings
1 star 2 stars 3 stars 4 stars 5 stars
comments

Bad Religion Tab

Artist: Bad Religion 
Song: Bad Religion

Intro and Verse
e|--------------------------------------------------------------------
B|--------------------------------------------------------------------
G|-5---------7--------------------------------------------------------
D|-5-7-5/7-7-7-7-7-5/7-7----------------------------------------------
A|-3-7-5/7-7-5-7-7-5/7-7----------------------------------------------
E|---5-3/5-5---5-5-3/5-5----------------------------------------------
[ Tab from: http://www.guitartabs.cc/tabs/b/bad_religion/bad_religion_tab.html ]
Pre Chorus
e|--------------------------------------------------------------------
B|--------------------------------------------------------------------
G|-7-7-7------9-9-9-7--7-9-9-9-7-7-7-9-9-9-7-7-7-9-9-9-7-7-7-888888888
D|-7-7-7-8--8-9-9-9-7--7-9-9-9-7-7-7-9-9-9-7-7-7-9-9-9-7-7-7-888888888
A|-5-5-5-8--8-7-7-7-5--5-7-7-7-5-5-5-7-7-7-5-5-5-7-7-7-5-5-5-666666666
E|-------6--6---------------------------------------------------------

Chorus
e|---------------------|----------------------------------------------
B|---------------------|----------------------------------------------
G|-8-------------------|-88889999999999997----------------------------
D|-8-88-88-6-6-8-88-88-|-888899999999999975---------------------------
A|-6-88-88-6-6-8-88-88-|-666677777777777755---------------------------
E|---66-66-4-4-6-66-66-|------------------7---------------------------

Outro
e|--------------------------------------------------------------------
B|--------------------------------------------------------------------
G|-8-8------8-8------8-8----------------------------------------------
D|-8-8-8-8--8-8-8-8--8-8-8--8-----------------------------------------
A|-6-6-8-8--6-6-8-8--6-6-8--8-----------------------------------------
E|-----6-6------6-6------6--6-----------------------------------------

tabed by jeff harding poo_poo_punk@hotmail.com
Comments