Bad Religion - Athiest Peace Chords & Tabs

 

Athiest Peace Chords & Tabs

Bad Religion Chords & Tabs

Version: 1 Type: Tab 0 ratings
1 star 2 stars 3 stars 4 stars 5 stars
comments

Athiest Peace Tab

   
-----------------------------------------------------------------------------
			     Athiest Peace - Bad Religion
-----------------------------------------------------------------------------
Tabbed by:Antone
Email:reznativex@hotmail.com

Tuning: standard

This is my first tab and this is the best song of the new album,I cant fucking believe
nobody tabed this song yet. I'm possitive that this is correct except for one note in
the intro but u can't notice it, and I didn't tab the little solo in the intro but what
ya gonna do. You'll have to figure out the strumming pattern yourself because I'm too
fucking lazy to tab it out, but its easy if you listen to the song. As for the Outro
play around with the chords in the intro and you might be able to figure it out. 
[ Tab from: http://www.guitartabs.cc/tabs/b/bad_religion/athiest_peace_tab.html ]
Intro: 2x
e|--------------------------------------------------------------------------|
B|---6------5-------5-------------------------------------------------------|
G|---7------7-------5-------10----5-----------------------------------------|
D|---7------7-------7-------10----5-----------------------------------------|
A|---5------5-------5--------8----3-----------------------------------------|
E|--------------------------------------------------------------------------|

Verse: 2x
e|--------------------------------------------------------------------------|
B|--------------------------------------------------------------------------|
G|--------------------------------------------------------------------------|
D|------10---12--------10--12---------10-----10-----------------------------|
A|--12---8---10---12---8---10-----8----8--10--8--10-------------------------|
E|--10------------10--------------6--------8------8-------------------------|

Chorus: 1x
e|--------------------------------------------------------------------------|
B|--------------------------------------------------------------------------|
G|--------------------------------------------------------------------------|
D|-10---5---7-------10--------------10--------------------------------------|
A|--8---3---5---8----8---10---12-----8--10---12-----8--7--------------------|
E|--------------6---------8---10---------8---10-----6--5--------------------|

Order of song:
If you cant figure it out your a Dumb Ass

| /  slide up
| \  slide down
| h  hammer-on
| p  pull-off
| ~  vibrato
| +  harmonic
| x  Mute note
=============================================================================
Comments