Bad Religion - At The Mercy Of Imbeciles Chords & Tabs

 

At The Mercy Of Imbeciles Chords & Tabs

Bad Religion Chords & Tabs

Version: 1 Type: Tab 0 ratings
1 star 2 stars 3 stars 4 stars 5 stars
comments

At The Mercy Of Imbeciles Tab

------------------------------------------------------------------------------- 
                 AT THE MERCY OF IMBECILES - Bad Religion
------------------------------------------------------------------------------- 

By: Terry (BadReligion_Believer5@hotmail.com) 

Intro 
e|----------------------------| 
B|----------------------------| 
G|----------------------------| 
D|--5/8\5-5-5-5--5/8\5-5-5-5--| 
A|--3/6\3-3-3-3--3/6\3-3-3-3--| 
E|----------------------------| 
[ Tab from: http://www.guitartabs.cc/tabs/b/bad_religion/at_the_mercy_of_imbeciles_tab.html ]
Verse 
e|-------------------------------------| 
B|-------------------------------------| 
G|-------------------------------------| 
D|-------------------5-----5-----5-----| 
A|--7-7-7-7--5-5--7--3--5--3--5--3--5--| 
E|--5-5-5-5--3-3--5-----3-----3-----3--| 

Chorus 
e|---------------------------------------| 
B|---------------------------------------| 
G|---------------------------------------| 
D|--7-7-7--9-9-9----------------7--9-----| 
A|--5-5-5--7-7-7--7-7-7--9-9-9--5--7--9--| 
E|----------------5-5-5--7-7-7--------7--| 

Outro 
e|-----------------------------------| 
B|-----------------------------------| 
G|-----------------------------------| 
D|-----7----------7----------7-------| 
A|--5--5--7----5--5--7----5--5--7\\--| 
E|--3-----5----3-----5----3-----5\\--| 

===============================================================================
Comments