Bad Religion - Anxiety Chords & Tabs

 

Anxiety Chords & Tabs

Bad Religion Chords & Tabs

Version: 1 Type: Tab 0 ratings
1 star 2 stars 3 stars 4 stars 5 stars
comments

Anxiety Tab

Bad Religion (No Control)

ANXIETY 

verse, intro 1, 2 3rd ending
e|--------------|-------|-------------------------------------|
b|--------------|-------|-------------------------------------|
g|-7--9--10--12-|-------|-------------------------------------|
d|--------------|-8--7--|-8--10-------------------------------|
a|-5--7--8---10-|-8--7--|-8--10-------------------------------|
e|--------------|-6--5--|-6--8--------------------------------|

chorus
|------------------------------------------------------------------|
|------------------------------------------------------------------|
|--7-7-7-7--3-3-3-3--5-5-5-5--7-7-7-7--7-7-7-7--10-10-10-10--------|
|--7-7-7-7--3-3-3-3--5-5-5-5--7-7-7-7--7-7-7-7--10-10-10-10--------|
|--5-5-5-5--1-1-1-1--3-3-3-3--5-5-5-5--5-5-5-5--8--8--8--8---------|
|------------------------------------------------------------------|

|------------------------------------------------------------------|
|------------------------------------------------------------------|
|-5-5-5-5--7-7-7-7-----------10-10-10-10-------------7-7-7-7-------|
|-5-5-5-5--7-7-7-7---8-8-8-8-10-10-10-10-10-10-10-10-7-7-7-7-------|
|-3-3-3-3--5-5-5-5---8-8-8-8--8--8--8--8-10-10-10-10-5-5-5-5-------|
|--------------------6-6-6-6-------------8--8--8--8----------------|
[ Tab from: http://www.guitartabs.cc/tabs/b/bad_religion/anxiety_tab.html ]
|------------------------------------------------------------------|
|------------------------------------------------------------------|
|------------------3-3-3-3-3-3-3-3---5-----------------------------|
|-3-3-3-3--5-5-5-5-3-3-3-3-3-3-3-3---5-----------------------------|
|-3-3-3-3--5-5-5-5-1-1-1-1-1-1-1-1---3-----------------------------|
|-1-1-1-1--3-3-3-3-------------------------------------------------|

bridge
|------------------------------------------------------------------|
|------------------------------------------------------------------|
|--12-12-12-12-12-12-12-12-10-10-10-10-10-10-10-10-----------------|
|--12-12-12-12-12-12-12-12-10-10-10-10-10-10-10-10-----------------|
|--10-10-10-10-10-10-10-10--8--8--8--8--8--8--8--8-----------------|
|------------------------------------------------------------------|

solo
|------------------------------------------------------------------|
|------------------------------------)-13-)-----------/15--15------|
|--10--9-10-12--10-9-10-9----------12------12--10-12---------------|
|-------------------------12-10-12---------------------------------|
|------------------------------------------------------------------|
|------------------------------------------------------------------|

|-------------13-12------------------------------------------------|
|-15-15-13-15-------13-15--15-13-----------------------------------|
|------------------------------------------------------------------|
|------------------------------------------------------------------|
|------------------------------------------------------------------|
|------------------------------------------------------------------|

2nd bridge
|------------------------------------------------------------------|
|------------------------------------------------------------------|
|-3-3-2-2-3--3-------5-5-5-5--7-7-7-7------------------------------|
|-3-3-3-3-3--3-5--5--5-5-5-5--7-7-7-7------------------------------|
|-1-1-3-3-1--1-5--5--3-3-3-3--5-5-5-5------------------------------|
|-----1-1------3--3------------------------------------------------|
Comments